Guitar Tabs, Chords and Lyrics


Baby I Want You  Mick Taylor

[E]It's part of the [B]game [Bm]to be cool and [A]unaffected
[Am]When I call and [E]say that I [B]want you
[E]And you're just the [B]same [Bm]hide your joy, show [A]no surprise
[Am] When I call and[E] say that I[B] want you
[E]Baby I [A]want you, and I [E]love you more each [F#m]day
[E]Baby I [A]want you, and I [E]love you more each [F#m]day
[E]Loving you [B]so long
[Bm]Where is the [A]life that's been lost in the [Am]living
[E]Where is the love that's been [B]lost in the giving
[E]Nights are so [B]endless
[Bm]We're always too [A]late for the mornings that [Am]follow
Though we [E]better come down and [B]reach for tomorrow
[E]Baby I [A]want you, and I [E]love you more each [F#m]day
[E]Baby I [A]want you, and I [E]love you more each [F#m]day

e|-12-12-10-10-------------------4-7-4-7-4-12--------------------------------|
B|-------------12-10-8-12-7b-5-7--------------12-9-12-8-9-12-12-11-11-10-10--|
G|---------------------------------------------------------------------------|
D|---------------------------------------------------------------------------|
A|---------------------------------------------------------------------------|
E|---------------------------------------------------------------------------|
e|---------------------------------------------------------------------------|
B|-9-7-5----0-5------8-12-11-10/-3-7-12-12-----------10----------------------|
G|-------7-------9-----------------------11-10-9-7---------------------------|
D|---------------------------------------------------------------------------|
A|---------------------------------------------------------------------------|
E|---------------------------------------------------------------------------|
e|-12-----------------------------------------------7-6-5---2-7-7------------|
B|----12-9-12-8-9-12-12-11-11-10-10-9-7-5---0-5-5-8-------3-------7------9b--|
G|----------------------------------------7-------------------------10-9-----|
D|---------------------------------------------------------------------------|
A|---------------------------------------------------------------------------|
E|---------------------------------------------------------------------------|

acoustic
e|--------------9-------------------------------9-12-9-----------------------|
B|-10-9-----------12-9-12------------------------------12-14-----------------|
G|------11-9-8------------11b-9------9-12-11-9---------------9-11------------|
D|------------------------------9-11------------------------------11-11------|
A|---------------------------------------------------------------------------|
E|---------------------------------------------------------------------------|



[E]Loving you [B]so long
[Bm]I play my gui[A]tar for you sweetly [Am]on this song
[E]You know I [B]want you more each day
[E]Baby I [A]want you, and I [E]love you more each [F#m]day
Baby I want you, and I love you more each day
Baby I want you
Baby I need you
Baby I want you
Baby I need you

Important: The song above is NOT stored on the Chordie server. The original song is hosted at www.guitaretab.com. Chordie works as a search engine and provides on-the-fly formatting. Chordie does not index songs against artists'/composers' will. To remove this song please click here.

Text color:
Chord color:
Chord grids: 
Font size:    
Page size: 

A Am B Bm E F#m
variations - click chord images

Login - add to songbook

Transpose chords

Tuning

Rating click stars to rate

Layout
Accuracy

SHARE PAGE  




You need to log in to post comments