GDCG
 So you think you're the only one who keeps me guessing or makes me run
 CGAB
 Now I seem to spend most of my time trying to get a message through
 GDCG
 I went down to Southwest Five to see if my soul was dead or alive
 CGAB
 Now I seem to spend most of my time trying to love you true
 F#mBGC
 Whoa lay your body down 
 C
You know a woman who's passion's so sweet is sure hard to find
 CF#mBCG
 And you plead for your lover a woman of heart and mind 
 GCGC
 And I love you so I believe that it's time to go
 GAB
And I love you so, trying to steal a message through
 GD
 Daylight breaks in your tired eyes
 CG
 You can't stop from all the lonely tears you cry
 CGAB
 How I want you by my side, when I'm trying to get a message through
 GDCGCG
 I went down to Southwest Five     and I seem to spend most of my time
 AB
 Trying to love you true

e|---12-12-12-15-14----------------------------------------------------------|
B|-12--------------15-12-12-15-15-13-13-12-12-----13-13-12-12----------------|
G|-------------------------------------------14-14---------------------------|
D|---------------------------------------------------------------------------|
A|---------------------------------------------------------------------------|
E|---------------------------------------------------------------------------|
e|---10-12-12-10--10-12--------10----------------10-12-10-15-12-12-12--------|
B|-12-----------12-----12-10-12--12--10-12-10-12---------------------15------|
G|---------------------------------------------------------------------------|
D|---------------------------------------------------------------------------|
A|---------------------------------------------------------------------------|
E|---------------------------------------------------------------------------|
e|---------------------------------------------------------------------------|
B|-12-10---10----------------------------------------------------------------|
G|------12----9-9------------------------------------------------------------|
D|---------------------------------------------------------------------------|
A|---------------------------------------------------------------------------|
E|---------------------------------------------------------------------------|


 GDCG
 Saw a friend the other day she didn't seem to have much to say
 CGAB
 She just turned and walked away, but she used to love me true
 G
I went down to Southwest Five yeah, and I'm using up all of my time
 AB
 Trying to love you true
 GDC
 I don't know if I'm dreaming all of this, too numb to feel
 GCG
But I'm hungry for your kiss, now I seem to spend most of my time
 B
Whoa lay your body down you know a woman who's love is so sweet
 GC
Is sure hard to find.....


A B C D F#m G
variations - click chord images
Transpose chords:
Tuning:
Cool service:
View: Size:
A  A  A
Rating:
Layout:
  • Currently 0/5 Stars.
  • 1
  • 2
  • 3
  • 4
  • 5
 
Accuracy:
  • Currently 0/5 Stars.
  • 1
  • 2
  • 3
  • 4
  • 5
 
click stars to rate
Chordie recommends:
Learn how to play guitar at JamPlay.com
Songbook:
Login to add this song to your songbook
Support the artist
Preview/buy this song
MSN Music
Why this non-profit ad?

 
login to add comments/video/corrections