Guitar Tabs, Chords and Lyrics


Roscoe   Midlake



Tabbed by: Charles Clark
Artist: Midlake
Song: Roscoe
Standard Tuning: E-A-D-G-B-e

Guitar 1 (Intro)

e--------------------|
B------4-2-----2-4---|
G----4-------4-------| x2
D--------------------|
A--------------------|
E--4-------4---------|

These picking patterns and chords are played together almost all the way through, listen 
timing.

Guitar 1

e----------------- e----------------- e----------------- e-----------------|
B-----4-2-----2-4- B-----4-2-----2-4- B----------------- B-----4-2-----2-4-|
G---4-------4----- G---4-------4----- G----------------- G---4-------4-----|
D----------------- D----------------- D----------------- D-----------------|
A----------------- A----------------- A----------------- A-----------------|
E-4-------4------- E-2-------2------- E----------------- E-4-------4-------|


Guitar 2

e-4--------------- e-2--------------- e-0--------------- e-4---------------|
B-4--------------- B-2--------------- B-0--------------- B-4---------------|
G-4-----STRUM----- G-3-----STRUM----- G-1-----STRUM----- G-4-----STRUM-----|
D-6--------------- D-4--------------- D-2--------------- D-6---------------|
A-6--------------- A-4--------------- A-2--------------- A-6---------------|
E-4--------------- E-2--------------- E-0--------------- E-4---------------|


~0:55 aprox. (also many times throughout the song)
   sounds like they play the same chords as the strumming above, but with distortion.


~1:07 aprox.
   e--11--9--7---------|
   B------------11p9---|


~1:23 aprox.  (also ~2:47, ~4:22) with a bit of guitar effect.
   e--16-14-11-9-9-9-14-11-7-11-9-6-4--

~1:32 aprox. (solo)

e---------------------------------------------|
B---------------------------------------------|
G--13-13-11-11--------------------------------|
D--------------13-13-11-11-9-9---8-11-9-8-6---|
A---------------------------------------------|
E---------------------------------------------|

  (solo cont.)
e---------------------------------------------------------------|
B---------------------------------------------------------------|
G--15-15-13-13-11-11---------------11----9----------------------|
D--------------------13-13-11-11------13-----13-11-6---11-9-6---|
A---------------------------------------------------------------|
E---------------------------------------------------------------|

~2:55 aprox. (solo 2)

e-----------------------------------------------------|
B--------------------------------------12-11----------|
G--------------------------------11-13-------11-8-6---|
D--------------9-9-11-11-13-13------------------------|
A--11-11-13-13----------------------------------------|
E-----------------------------------------------------|

   (solo 2 cont.)
e-------------------------------------------|
B--11-11-9-9------------9-9-----------------|
G------------11-8-6-4-------11-11-8-6-4-----|
D---------------------------------------6---|
A-------------------------------------------|
E-------------------------------------------|

   (solo 2 cont.)
e----------------------------------------------------------|
B----------------------------------------------------------|
G----6-8-----4-6---1-3-4---1-1-3---1-3-4-----6-8-6-4-1-8---|
D--6-------6-------------------------------6---------------|
A----------------------------------------------------------|
E----------------------------------------------------------|

Thanks for viewing My Tabs



Important: The song above is NOT stored on the Chordie server. The original song is hosted at www.guitaretab.com. Chordie works as a search engine and provides on-the-fly formatting. Chordie does not index songs against artists/composers will. To remove this song please click here.

This song is displayed as text-only. Transposing and tuning is only available for chordpro-songs.

Login - add to songbook

Rating click stars to rate

Layout
Accuracy

SHARE PAGE  




You need to log in to post comments