Guitar Tabs, Chords and Lyrics


Earth And Sun And Moon  Midnight Oil



e|-----------------------------------------------------------------|

B|-----------------------------------------------------------------|
G|-----------------------------------------------------------------|
D|------5--5-------5-5--------5-------5-5--------5-5-------5-------|
A|0-0-0------0-0-0------0-0-0--------------------------------------| }
E|------------------------------3-3-3------3-3-3-----3-3-3---------| }
e|-----------------------------------------------------------------| }
B|-----------------------------------------------------------------| }
G|-------2-2--------2-2-------2------------------------------------|
D|------------------------------------5-5-------5-5-------5--------|
A|-----------------------------------------------------------------|
E|-2-2-2------2-2-2-----2-2-2---0-0-0-----0-0-0-----0-0-0----------|
e|------------------------------------------------------------------------------------|
B|------------------------------------------------------------------------------------|
G|------------------------------------------------------------------------------------|
D|------5-5-------5-5-------5-------5-5-------5-5-------5-------5-5-------5-5-------5-|
A|0-0-0-----0-0-0-----0-0-0---0-0-0-----0-0-0-----0-0-0---0-0-0-----0-0-0-----0-0-0---|
E|------------------------------------------------------------------------------------|
e|-----2-----2---2-----2-----3---2-----2-----2---2---|
B|---------------------------------------------------|
G|---2-----2---------2-----2---------2-----2---------|
D|-0-----0-----0---0-----0-----0---0-----0-----0-----|
A|---------------------------------------------------|
E|---------------------------------------------------|
e|-----2-----2---2-----2-----3---2-----2-----2---2---|
B|---------------------------------------------------|
G|---2-----2---------2-----2-------------------------|
D|-0-----0-----0---0-----0-----0-----0-----0---------|
A|---------------------------------2-----2-----2-----|
E|---------------------------------------------------|
In the m[D]orning we will wake up and take to the air
Look back at the planet - I'm glued to my c[Bm]hair
S[D]outhern half is burning as we climb through the sky
Sea birds softly falling, smoke way up hi[Bm]gh     [D]
There's the c[D]ontours of the mountains, the deserts and plains
And a hurricane is blowing and it turns once ag[Bm]ain
Now there's [D]oil spills in the water where columbus once sailed
And there's history and mystery and it's rolling aw[Bm]ay
[G]   [D/F#]      I wish I could s[G]ee [D/F#]   this great myste[Em]ry
E[Bm]arth and s[G]un and m[D]oon, huma[G]n tr[D]ibe, thin blue li[Em]ne
E[Bm]arth and s[G]un and m[D]oon, wi[G]ll survi[D]ve
INTRO


Sediment is flowing from river to sea

Now where are the mighty nations, no lines to be seen

An axe upon the broken ground, the sigh of the trees

And it's floating in the ether, it brings me to my knees


Too messed up to care, anyone got a wing and a prayer

Earth and sun and moon, human tribe, thin blue line

Earth and sun and moon, will survive

In the blink of an eye, thank you and good night


Earth and sun moon
etc...

p.s. this is what I am calling D/F#: (what's the proper name?!)

      [3]0
0
      [2]                               

Jonathan Hart
Oils@total.net

p.s. Jim Moginie wrote this one, as well as Warakurna. See any similarities?

Important: The song above is NOT stored on the Chordie server. The original song is hosted at www.guitaretab.com. Chordie works as a search engine and provides on-the-fly formatting. Chordie does not index songs against artists'/composers' will. To remove this song please click here.

Text color:
Chord color:
Chord grids: 
Font size:    
Page size: 

Bm D D/F# Em G
variations - click chord images

Login - add to songbook

Transpose chords

Tuning

Rating click stars to rate

Layout
Accuracy

SHARE PAGE  




You need to log in to post comments