Guitar Tabs, Chords and Lyrics


Another Drinking Song  Mighty Mighty Bosstones



  [F#m]          [-]    [C#m]        [-]    [F#m]                                                           
E---------------------------------------|
B---------------------------------------|
G---------------------------------------|
D---------------------------------------|
A---------------4-----------------------|
E--2----5--4--------5--4-----2----------|

[F#m]Gonna dive into a dive I've [C#m]dove into before
[F#m]Gonna haunt a haunt I've haunted Like a [C#m]million times or more
Fill(played during verse)
E--9----------9--------|
B----10-~-------9-~----|
G----------------------|
D----------------------|

[F#m]A familiar joint Where getting [C#m]drunk's the only point
[F#m]To frequent this place [E]With any frequency at all
[F#m]Countin' on a remedy I've [C#m]counted on before
[F#m]Goin' with a cure that's never [C#m]failed me
[F#m]What you call the disease, I[C#m] call the remedy
[F#m]What you're callin' the cause, I[C#m] call the cure
[F#m]Gonna sing a song, a song to you A [C#m]song I've sung before
[F#m]Belt out a ballad that I've [C#m]belted out a million times or more
[F#m]The words I'm gonna scream And [C#m]getting drunk's the central theme
[F#m]To the lyrics, if you can [E]Make the lyrics out at all

Chorus(Ska Riffs)
  [F#]     [-]    [C#]       [-]  [B]       [-]  [C#]                                                          
E-2-2-2-2--4-4-4-4--2-2-2-2--4-4-4-4---|
B-2-2-2-2--6-6-6-6--4-4-4-4--6-6-6-6---|
G-3-3-3-3--6-6-6-6--4-4-4-4--6-6-6-6---|
D-4-4-4-4--6-6-6-6--4-4-4-4--6-6-6-6---|
A--------------------------------------|
E--------------------------------------|


[F#]Countin' on a [C#]remedy I've [B]counted on [C#]before
[F#]Goin' with a [C#]cure that's never [B]failed me[C#]
[F#]What you call the [C#]disease,[B] I call the [C#]remedy
[F#]What you're callin' the [C#]cause, I call the [F#]cure

Here's the part after the chorus(only guitar):(2x)
  F# - C#  -   F#       -   Eb - B  - Eb  - B
E----------------------------------------------------|
B----------------------------------------------------|
G------6-~------------------8-8--------8-8-----------|
D-4-4--6-~-----4-4--4-4-----8-8--9-9---8-8--9-9------|
A-4-4--4-~-----4-4--4-4-----6-6--9-9---6-6--9-9------|
E-2-2----------2-2--2-2----------7-7--------7-7------|


Bridge:
[F#]Just a devotion to a [C#]potion Now [B]please no [C#]applause
[F#]A dedication to a [C#]medication A [B]crutch a cure [C#]a cause
[F#]What I've counted on to [C#]pick me up [B]Has knocked me to my [C#]knees
[F#]Before I hit the [C#]floor once more I[B]'ll call it the [C#]disease

Chorus 2:
[G#]Countin'on a [D#]remedy I've [C#]counted on [D#]before
[G#]Goin' with a [D#]cure that's never [C#]failed me[D#]
[G#]What you call the [D#]disease,[C#] I call the [D#]remedy
[G#]What you're callin' the [D#]cause, I call the [G#]cure

PArt after the chorus:
  G# - D#  -   G#       -   F -  C#  - F  - C#
E--------------------------------------------------|
B--------------------------------------------------|
G------8-~------------------------6-6-------6-6----|
D-6-6--8-~-----6-6--6-6------3-3--6-6--3-3--6-6----|
A-6-6--6-~-----6-6--6-6------3-3--4-4--3-3--4-4----|
E-4-4----------4-4--4-4------1-1-------1-1---------|


Suggestions or anything else ramaral@net.em.com.br

Important: The song above is NOT stored on the Chordie server. The original song is hosted at www.guitaretab.com. Chordie works as a search engine and provides on-the-fly formatting. Chordie does not index songs against artists'/composers' will. To remove this song please click here.

Text color:
Chord color:
Chord grids: 
Font size:    
Page size: 

B C# C#m D# E F# F#m G#
variations - click chord images

Login - add to songbook

Transpose chords

Tuning

Rating click stars to rate

Layout
Accuracy

SHARE PAGE  




You need to log in to post comments