Chordie logo

Someday I Suppose   Mighty Mighty Bosstones



Artist: Mighty Mighty Bosstones
Song: Someday I Suppose
Tabbed By: McMasta


Intro/Chorus                             1st Ending
e|------------|----------|----------|-------------------|
B|----9-10-12~|--9-10-12~|--9-10-12~|-12-12-12-12-14-12-|
G|------------|----------|----------|-------------------|
D|-9----------|----------|----------|-------------------|
A|-7----------|----------|----------|-------------------|
E|------------|----------|----------|-------------------|
                                                               Not 1st Chorus
                          Second Ending                              v
|-------------------------------------------------------------------------|
|-------------------------------------------------------------------------|
|-------------------------------------------------------------------------|
|-9-----------9--------------9--------------9----9----9----9----9----2----|
|-7-----------7--------------7--------------7----7----7----7----7----2----|
|---0----0---------0----0---------0----0-----------------------------0----|
PM  .    .         .    .         .    .

Verse (Ska Strumming)                    v This Chord comes in sporadically. Listen to 
song to figure it out.
|--4----7----4----5----|--4----7----4----0----|
|--5----7----5----5----|--5----7----5----0----|
|--4----8----6----6----|--4----8----6----1----|
|----------------------|----------------------|
|----------------------|----------------------|
|----------------------|----------------------|
2nd Verse Ending
|------------|------------|------------|
|------------|------------|------------|
|------------|------------|------------|
|----------2-|----------7-|----------4-|
|--2-2-2-2-2-|--7-7-7-7-7-|--4-4-4-4-4-|
|--0-0-0-0-0-|--5-5-5-5-5-|--2-2-2-2-2-|
PM . . . .      . . . .     . . . .

Bridge/Chorus Ending
|-----------------|---------------------|
|-----------------|---------------------|
|-----------------|--x-9-x-9-x-9-x-9-11-|
|--2----7----4----|---------------------|
|--2----7----4----|---------------------|
|--0----5----2----|---------------------|x2


|-----------------------|---------------------|
|-----------------------|---------------------|
|----11-9---11-9---11-9-|--x-9-x-9-x-9-x-9-11-|
|--2------7------4------|---------------------|
|--2------7------4------|---------------------|
|--0------5------2------|---------------------|x2


Last Verse
|------------|------------|------------|----------------|
|------------|------------|------------|------9~------9~|
|------------|------------|------------|--9-9-----9-9---|
|----------2-|----------7-|----------4-|----------------|
|--2-2-2-2-2-|--7-7-7-7-7-|--4-4-4-4-4-|----------------|
|--0-0-0-0-0-|--5-5-5-5-5-|--2-2-2-2-2-|----------------|x2
PM . . . .      . . . .      . . . .

|---------------|---------------|-------------------------------9----|
|----------12-9-|----------12-9-|----------12-9-x-12-12-9-10-12---12-|
|---------------|---------------|------------------------------------|
|---------------|---------------|------------------------------------|
|--2-2-2-2------|--7-7-7-7------|--4-4-4-4---------------------------|
|--0-0-0-0------|--5-5-5-5------|--2-2-2-2---------------------------|x2
PM . . . .         . . . .         . . . .


Intro/Chorus
Verse
Chorus
Verse
Chorus/Bridge
Bass Solo
Last Verse

Chorus/Bridge Ending

For the very last notes, instead of doing the quick riff, just hit the 9 twice.

Note that there are also a few pick slides and other minorities I haven't bothered 
out. Anyway, enjoy.

| /  slide up
| \  slide down
| h  hammer-on
| p  pull-off
| ~  vibrato
| +  harmonic
| x  Mute note


Important: The song above is NOT stored on the Chordie server. The original song is hosted at www.guitaretab.com. Chordie works as a search engine and provides on-the-fly formatting. Chordie does not index songs against artists/composers will. To remove this song please click here.

This song is displayed as text-only. Transposing and tuning is only available for chordpro-songs.

Login - add to songbook

Rating click stars to rate

Layout
Accuracy

SHARE PAGE  

You need to log in to post comments