La Botella

Miguel Y Miguel

-----------------------------------------------------------------------------

-----------------------------------------------------------------------------
e|--0--2--0-----0-|-2--0-----0--2--0-----0--|--2-0-2-0----5-5--4-----4-4-4--|
B|--2--3--2--2--2-|-3--2-2---2--3--2--2--2--|--3-2-3-2----7-7--5--4--5-5-5--|
G|-----------2-----------2------------2---------------------------3---------|
D|--------------------------------------------------------------------------|
A|--------------------------------------------------------------------------|
E|--------------------------------------------------------------------------|
e|--2--0--------------------------------------------------------------------|
B|--3--2--3--2--------------------------------------------------------------|
G|--------4--2--------------------------------------------------------------|
D|--------------------------------------------------------------------------|
A|--------------------------------------------------------------------------|
E|--------------------------------------------------------------------------|

 A
Cuando me muera
como te agradeceria
 E
que pusieras en mi tumba
 A
dos botellas de mezcal

 A
 Porque se que de morirme de una cruda
 E
sabes bien que es culpa tuya
 A
por no poderte olvidar

 A
Todas las noches

cuando agarro la botella
 E
yo te miro dentro de ella
 A
y me pongo a platicar

 A
 Al rato siento que me abrazas y me aprietas
 E
cual si fuera cosa cierta
 AA7
te amo te amo y no es verdad    

 D
Cuando a fin vuelvo
 A
de mis locos pensamientos
 E
empiezan mis sufrimientos
 A
porque te busco y no estas

 A
De mis ojos  empieza a brotar el llanto
 E
porque yo te quiero tanto
 A
y no lo puedo evitar

(intro)
 A
Todas las noches

cuando agarro la botella
 E
yo te miro dentro de ella
 A
y me pongo a platicar

 A
 Al rato siento que me abrazas y me aprietas
 E
cual si fuera cosa cierta
 AA7
te amo te amo y no es verdad    

 D
Cuando a fin vuelvo
 A
de mis locos pensamientos
 E
empiezan mis sufrimientos
 A
porque te busco y no estas

 A
De mis ojos  empieza a brotar el llanto
 E
porque yo te quiero tanto
 AEA
y no lo puedo evitar         


A A7 D E
variations - click chord images
Transpose chords:
Tuning:
Cool service:
View: Size:
A  A  A
Rating:
Layout:
  • Currently 3/5 Stars.
  • 1
  • 2
  • 3
  • 4
  • 5
 
Accuracy:
  • Currently 3.4/5 Stars.
  • 1
  • 2
  • 3
  • 4
  • 5
 
click stars to rate
Chordie recommends:
Learn how to play guitar at JamPlay.com
Songbook:
Login to add this song to your songbook
Support the artist
Preview/buy this song
MSN Music
Why this non-profit ad?

 
login to add comments/video/corrections