Guitar Tabs, Chords and Lyrics


Vicious Circle   Millencolin



Song:Vicious Circle
Album:Machine 15
Artist:Millencolin
Date tabbed:May,2008
Guitar Tabber:Ryan Manongdo/18/Vancouver,Ca
              rhyezkie@gmail.com(gtalk)
              no_falter0x@yahoo.com(YM,friendster,facebook&myspace)

For any comments,questions or suggestions,just post a comment or PM me.Pilipino Rules!!

Gtr.Legends:
~ - let it ring
. - palm muting

Gtr.Tuning:Standard(Normal)

Intro:
e|-00000-0000-0000-00000---|
B|-00000-0000-0000-00000---|
G|-66666-2222-1111-11111---|
D|-66666-2222-2222-22222---|
A|-44444-0000-2222-22222---|
E|-------------------------|

Verse 1:I see the sunlight...
e|-00000-0000-0000-00000--      -0000---|
B|-00000-0000-0000-00000--      -0000---|
G|-66666-2222-1111-11111-- 2x   -4444---|
D|-66666-2222-2222-22222-- Then -4444---|
A|-44444-0000-2222-22222--      -2222---|
E|------------------------      --------|

Verse 1 continuation:Oh,should we try...
e|-00000-0000-0000-00000--      -00000000---|
B|-00000-0000-0000-00000--      -00000000---|
G|-66666-2222-1111-11111-- 2x   -44444444---|
D|-66666-2222-2222-22222-- Then -44444444---|
A|-44444-0000-2222-22222--      -22222224---|
E|------------------------      ------------|

Chorus:So tear me up...
e|-0000-0000---------0000-0000------0000---|
B|-0000-0000---------0000-0000------0000---|
G|-1111-4444---------1111-4444------2222---|
D|-2222-4444-4~-7~---2222-4444--4~--2222---|
A|-2222-2222-4~-7~---2222-2222--4~--0000---|
E|-0000------2~-5~---0000-------2~---------|

Verse 2:You know that I depend...
e|-00-------00-------00-------00-------      -0000000---00--00---|
B|-00-------00-------00-------00-------      -0000000---00--00---|
G|-66-6666--22-2222--11-------11------- 2x   -4444444---44--44---|
D|-66-6666--22-2222--22-2222--22-2222-- Then -4444444---44--44---|
A|-44-4444--00-0000--22-2222--22-2222--      -2222222---22--22---|
E|-------------------00-0000--00-0000--      --------------------|
      ....     ....     ....     ....

Repeat Chorus:

Bridge prt.1:And I'm tired...
e|-----------------------------------------------------------000000-0000---|
B|-----------------------------------------------------------000000-0000---|
G|-666-444-111111---666-444-1111----666-888-11111----666-444-222222-2222---|
D|-666-444-222222---666-444-2222----666-888-22222----666-444-222222-2222---|
A|-444-222-222222---444-222-2222----444-666-22222----444-222-000000-0000---|
E|---------000000-----------0000------------00000--------------------------|

Bridge prt.2:It's like a vicious...
e|---------------------------------------------------------------------|
B|---------------------------------------------------------------------|
G|---------------------------------------------------------------------|
D|-99999-99999--1111111111-77777----99999-99999-1111111111-777777777---|
A|-77777-99999---9-9-9-9-9-77777----77777-99999--9-9-9-9-9-777777777---|
E|-------77777-------------55555----------77777------------555555555---|
   ..... .....   . . . . . .....    ..... .....  . . . . .

Repeat Chorus:

Last Chord:
e|-0~---|
B|-0~---|
G|-1~---|
D|-2~---|
A|-2~---|
E|-0~---|

End...


Vicious Circle Lyrics:

Verse 1:
I see the sunlight on your face,
I see the darkness in your eyes.
In my mind, that's lover's paradox.
I always try to give you space,
No way to cut you down to size.
We got lost in our heart shape box.

Verse 1 Continuation:
Oh, should we try to have some kids
Or should we just go separate ways?
Or best yet, why don't we move abroad?
Maybe Belgrade or Madrid,
But we can get out of this maze.
It sounds like we're both confused and bored.

Chorus:
So tear me up
And knock me down.
Just like a vicious circle no one gets around.
I messed you up,
To watch you frown.
Just like a vicious circle no one gets around.

Verse 2:
You know that I depend on you,
You know that you depend on love.
And then love, well, love depends on me.
From my subjective point of view,
It never works like hand in glove.
But still I, I hope you disagree.

Repeat Chorus:

Bridge prt.1:
And I'm tired of you being tired of me,
Oh yeah, that's right, sometimes I wish we just could let it be.
And I'm tired of me being tired of you,
It's obvious, sometimes you wish you meet somebody new.
You...
Sometimes I wish that too.

Bridge prt.2:
It's like a vicious circle no one gets around.
I messed you up,
To watch you frown.
Just like a vicious circle no one gets around.

Chorus:
So tear me up
And knock me down.
Just like a vicious circle no one gets around.
I messed you up,
To watch you frown.
Just like a vicious circle no one gets around.
No one gets around.
No one gets around.

It's like a vicious circle no one gets around.
So tear me up
And send me out.
It's like a vicious circle no one gets around.



Important: The song above is NOT stored on the Chordie server. The original song is hosted at www.guitaretab.com. Chordie works as a search engine and provides on-the-fly formatting. Chordie does not index songs against artists'/composers' will. To remove this song please click here.

This song is displayed as text-only. Transposing and tuning is only available for chordpro-songs.

Login - add to songbook

Rating click stars to rate

Layout
Accuracy

SHARE PAGE  




You need to log in to post comments