Guitar Tabs, Chords and Lyrics


Kemp   Millencolin



Chorus & Intro:
E----------------------------------------
B----------------------------------------
G----------------5-5-5--2-2-2------------
D-5-5-5---2-2-2--5-5-5--0-0-0------------
A-5-5-5---2-2-2--2-2-2--0-0-0------------
E-2-2-2---0-0-0--------------------------

Verse is the same as the Chorus & Intro riff but its palm muted instead.

Bridge:
E--------------------------------------
B--------------------------------------
G-7-------9----------------------------
D-7-------9----------------------------
A-5-------7----------------------------
E--------------------------------------
  x16     x16

Scale for the Solo (F#)-

E------------------------------------14-17--
B-----------------------------14-16---------
G----------------------14-16----------------
D---------------14-16-----------------------
A--------14-16------------------------------


Important: The song above is NOT stored on the Chordie server. The original song is hosted at www.guitaretab.com. Chordie works as a search engine and provides on-the-fly formatting. Chordie does not index songs against artists'/composers' will. To remove this song please click here.

This song is displayed as text-only. Transposing and tuning is only available for chordpro-songs.

Login - add to songbook

Rating click stars to rate

Layout
Accuracy

SHARE PAGE  




You need to log in to post comments