Guitar Tabs, Chords and Lyrics
Major upgrade!! After one year development the new version of Chordie is now online! Please give feedback.


She√Ę??s a Doll   Millionaire

 
 e|-------------------------------------|
 B|-----------1---x-x-----------1-------|
 G|-----------0---x-x---------------0---|
 D|-------2-------x-x-------3-----------| 4x
 A|---3-----------x-x-------------------|
 E|---------------------1---------------|

 


 


 r m i i p m fingers


 


 voice of my life, she says she is my wife


 skin off my knees, always try to please


 


 [(B)] V A V A


 

 
 e|-------------------------------------|
 B|-----------8---x-x---------------x-x-|
 G|-----------8---x-x-----------4---x-x-|
 D|-------8-------x-x-----------5---x-x-| 2x
 A|---6-----------x-x-------5-------x-x-|
 E|---------------------3---------------|

 


 


 got more then she tells me, yeah it got her to hell


 


 [(A)]  


 she'a doll, yeah


 


 She's very lame, for me it is the same


 I'm not so fast, but I try to do my best


 she looks good to me, she sayd I look good too


 she's a doll, yeah


 


 [(C)]  


 

 
 A# - A - D# - G - F - A - D# - G 2x
 A# - A - D# - G - F - A - D# - D#


Important: The song above is NOT stored on the Chordie server. The original song is hosted at www.guitaretab.com. Chordie works as a search engine and provides on-the-fly formatting. Chordie does not index songs against artists'/composers' will. To remove this song please click here.

This song is displayed as text-only. Transposing and tuning is only available for chordpro-songs.
Rate #0 of 0 versions

Login - add to songbook

SHARE PAGE  




You need to log in to post comments