Guitar Tabs, Chords and Lyrics


Evening Wear   Mindless Self Indulgence



-------------------------------------------------------------------------------
	          Evening Wear - Mindless Self Indulgence
-------------------------------------------------------------------------------
Tabbed by: Forsakensoul
Email: microdbz711@yahoo.com

[Great song off their latest album, If. I felt like tabbing it out, it wasn't too hard
I'd been playing it this way for a while. I'm not sure how correct it is, but hey it
right. Enjoy, comment, rate, listen to the song for the rhythm, etc! ^_^ Extra Note: 
Righ? only uses 5 string guitars.]

Verse 1
B|-------------------------|
G|-------------------------|
D|-6-6-6-6-6-x-9-9-x-2-2---|  x3
A|-6-6-6-6-6-x-9-9-x-2-2---|
E|-4-4-4-4-4-x-7-7-x-0-0---|

B|-------------------------|
G|-------------------------|
D|-6-6-6-6-6-x-4-4-4-4-4---|  !Repeat Entire Verse Twice!
A|-6-6-6-6-6-x-4-4-4-4-4---|
E|-4-4-4-4-4-x-2-2-2-2-2---|


Chorus 1
B|----------------------------|
G|----------------------------|
D|-6~-9~-2--8-8-8-8-8-8-8-8---|  x3
A|-6~-9~-2--8-8-8-8-8-8-8-8---|
E|-4~-7~-0--6-6-6-6-6-6-6-6---|

B|-------|
G|-------|
D|--11~--|  x3
A|--11~--|
E|---9~--|

B|-----------------|
G|-----------------|
D|-6-6-6---2-2-2---|  x2
A|-6-6-6---2-2-2---|
E|-4-4-4---0-0-0---|


Verse 2
B|-------------------------|
G|-------------------------|
D|-6-6-6-6-6-x-9-9-x-2-2---|  x3
A|-6-6-6-6-6-x-9-9-x-2-2---|
E|-4-4-4-4-4-x-7-7-x-0-0---|

B|-------------------------|
G|-------------------------|
D|-6-6-6-6-6-x-4-4-4-4-4---|  !Repeat Entire Verse Twice!
A|-6-6-6-6-6-x-4-4-4-4-4---|
E|-4-4-4-4-4-x-2-2-2-2-2---|


Chorus 2
B|----------------------------|
G|----------------------------|
D|-6~-9~-2--8-8-8-8-8-8-8-8---|  x3
A|-6~-9~-2--8-8-8-8-8-8-8-8---|
E|-4~-7~-0--6-6-6-6-6-6-6-6---|

B|---------------|
G|---------------|
D|--11~-10~-9~---|  x3
A|--11~-10~-9~---|
E|---9~--8~-7~---|

B|-----------------|
G|-----------------|
D|-6-6-6---2-2-2---|  x2
A|-6-6-6---2-2-2---|
E|-4-4-4---0-0-0---|

Bridge
B|-------------------------------------------------|-------------------|
G|-------------------------------------------------|-------------------|
D|-----------------8-8-8-8-8-8-8-8-9-9-9-9-9-9-9-9-|-------------------|  x2
A|-6-6-6-6-6-6-6-6-6-6-6-6-6-6-6-6-7-7-7-7-7-7-7-7-|-2-2-2-2-2-2-2-2---|
E|-4-4-4-4-4-4-4-4---------------------------------|-0-0-0-0-0-0-0-0---|
                                                   |Dont play this part|
                                                   |on second repeat---|


Final Chorus/Ending
B|----------------------------|
G|----------------------------|
D|-6~-9~-2--8-8-8-8-8-8-8-8---|  x3
A|-6~-9~-2--8-8-8-8-8-8-8-8---|
E|-4~-7~-0--6-6-6-6-6-6-6-6---|

B|---------|
G|---------|
D|-6~-9~---|
A|-6~-9~---|
E|-4~-7~---|

B|---------------|
G|---------------|
D|--11~-10~-9~---|  x3
A|--11~-10~-9~---|
E|---9~--8~-7~---|

B|-----------------|
G|-----------------|
D|-6-6-6---2-2-2---|  x2
A|-6-6-6---2-2-2---|
E|-4-4-4---0-0-0---|

End On
B|-----|
G|-----|
D|-6---|
A|-6---|
E|-4---|

~~~~~~~End~~~~~~~
| ~  Let Ring
| x  Muted Noted


Important: The song above is NOT stored on the Chordie server. The original song is hosted at www.guitaretab.com. Chordie works as a search engine and provides on-the-fly formatting. Chordie does not index songs against artists/composers will. To remove this song please click here.

This song is displayed as text-only. Transposing and tuning is only available for chordpro-songs.

Login - add to songbook

Rating click stars to rate

Layout
Accuracy

SHARE PAGE  




You need to log in to post comments