Youll Rebel To Anythingas Long As Its Not Challenging

Mindless Self Indulgence


-Mindless Self Indulgence -You'll Rebel To Anything(As Long As It's Not Challening) -You'll Rebel To Anything
EADGBE-Tuning
x=Stop note after note is heard. And sliding is not included seeing sliding happens everywhere the frets have quite some distance between them.
Every part played in the order they play it, so some things will be listed several times.
||----------||x2 ||----------|| ||----------|| ||-33399998-|| ||-11177776-|| ||----------||
||---------------------------------------------||x2 ||---------------------------------------------|| ||-------------5x--------6x-6x-6x-6x-----------|| ||-6x-6x-6x-6x-3x-(REST)-4x-4x-4x-4x-8x-(REST)-|| ||-4x-4x-4x-4x-----------------------6x--------|| ||---------------------------------------------||
||-------------------------------------------------------------||x3 ||-------------------------------------------------------------|| ||-------------------------------------------------------------|| ||-9x--9x--9x-8x--9x--8x--666101010101013*13*13*15*15*15*15*15-|| ||-7x--7x--7x-6x--7x--6x--4448-8-8-8-8-11*11*11*13*13*13*13*13-|| ||-------------------------------------------------------------||
||----------||x2 ||----------|| ||----------|| ||-33399998-|| ||-11177776-|| ||----------||
I think it's some kind of phaser-effect used, but anyway this is how you get the notes:
||---------------------||x2 ||---------------------|| ||---------------------|| ||-9~---8~---5~---6~---|| ||---------------------|| ||-7~---6~---3~---4~---||
||----------||x2 ||----------|| ||----------|| ||-33399998-|| ||-11177776-|| ||----------||
||---------------------------------------------||x2
||---------------------------------------------|| ||-------------5x--------6x-6x-6x-6x-----------|| ||-6x-6x-6x-6x-3x-(REST)-4x-4x-4x-4x-8x-(REST)-|| ||-4x-4x-4x-4x-----------------------6x--------|| ||---------------------------------------------||
||-------------------------------------------------------------||x3 ||-------------------------------------------------------------|| ||-------------------------------------------------------------|| ||-9x--9x--9x-8x--9x--8x--666101010101013*13*13*15*15*15*15*15-|| ||-7x--7x--7x-6x--7x--6x--4448-8-8-8-8-11*11*11*13*13*13*13*13-|| ||-------------------------------------------------------------||
||----------||x2 ||----------|| ||----------|| ||-33399998-|| ||-11177776-|| ||----------||
||---------------------||x2 ||---------------------|| ||---------------------|| ||-9~---8~---5~---6~---|| ||---------------------|| ||-7~---6~---3~---4~---||
||----------||x2 ||----------|| ||----------|| ||-33399998-|| ||-11177776-|| ||----------||
Tremolo picking with an effect pedal, decreasing volume every time it's played:
||-----------------||x7 ||-----------------|| ||-----------------|| ||-----------------|| ||-----------------|| ||-7---6---3---4---||
Silence for a while
||----------||x3 ||----------|| ||----------|| ||-33399998-|| ||-11177776-|| ||----------||
||------------------||x1 ||------------------|| ||------------------|| ||-3x3x3x9x9x9x9x8x-|| ||-1x1x1x7x7x7x7x6x-|| ||------------------||
And that's the song.
Comments in the comments section;-)


















variations - click chord images
Transpose chords:
Tuning:
Cool service:
View: Size:
A  A  A
Rating:
Layout:
  • Currently 0/5 Stars.
  • 1
  • 2
  • 3
  • 4
  • 5
 
Accuracy:
  • Currently 0/5 Stars.
  • 1
  • 2
  • 3
  • 4
  • 5
 
click stars to rate
Songbook:
Login to add this song to your songbook
IMPORTANT: The song above is NOT stored on the Chordie server. The original song is hosted at www.guitaretab.com. Chordie works as a search engine and provides on-the-fly formating. Chordie does not index songs against artists/composers will. To remove this song please click here.

 
login to add comments/video/corrections