Chordie logo

Absynthe Party At The Fly Honey Wharehouse   Minus The Bear



Minus the Bear...

Song. Absinthe party at the fly honey wharehouse...


Tabbed By Cullen.....obsbrain@comcast.net

h=hammer on
p=pull off


Drop D

intro/verse1
 use right hand for the 12th fret hammer on pull offs
e|----------------------------------------------|
B|----------------------------------------------|
G|------h12p0-------h12p0-------h12p0-----h12p0-|
D|-----h12p0-------h12p0-------h12p0-----h12p0--|
A|----------------------------------------------|
D|--0h5---------0h5---------0h5--------0h5------|

e|----------------------------------------------|
B|----------------------------------------------|
G|------h12p0-------h12p0-----------------------|
D|-----h12p0-------h12p0------------------------|
A|----------------------------------------------|
D|---0h9---------0h10---------------------------|

e|----------------------------------------------|
B|----------------------------------------------|
G|------h12p0-------h12p0-------h12p0-----h12p0-|
D|-----h12p0-------h12p0-------h12p0-----h12p0--|
A|----------------------------------------------|
D|---0h2--------0h2---------0h2--------0h2------|


main verse
again use your right hand man!!!


e|-----------------------------------------------|
B|-----------------------------------------------|
G|----------h12p0----------h12p0-----------h12p0-|
D|----h12-h10--------h12-h10--------h12-h10------|
A|-----------------------------------------------|
D|--5--------------5-------------5---------------|
play it four times not enough room hehe

e|-----------------------------------h10-h12p0--|
B|----------h10-h12p0------------h12------------|
G|------h12-------------------------------------|
D|----------------------------------------------|
A|----------------------------------------------|
D|----9----------------------10-----------------|


e|-----------------------------------------------|
B|-3------------3------------3-------------------|
G|---h7------------h7----------h7----------------|
D|------h7-h7--------h7-h7-------h7-h7-----------|
A|-----------------------------------------------|
D|-2------------2------------2-------------------|pause then

e|----------------------------------------------|
B|--h7p0----h3----------------------------------|
G|--------------h7p0----------------------------|
D|----------------------------------------------|
A|----------------------------------------------|
D|----------------------------------------------|

chorus


e|----------------------------------------------|
B|----------------------------------------------|
G|----------------------------------------------|
D|---------12-12-9-9-----------9-9-7-7----------|
A|---10--------------10----7-----------9---5----|
D|---10-10-----------10-10-7-7---------9-9-5-5--|


e|----------------------------------------------|
B|----------------------------------------------|
G|----------------------------------------------|
D|-7-7-5-5----------5-5------7-7----------------|
A|----------7---2-------5-----------------------|
D|----------7-7-2-2-----5-5---------------------|


he chords it out a little you'll get the picture...its preatty basic


only part haven't really got
e|------------------------crazy riff?|?you can--|
B|----------------------------------------------|
G|----------------------------------------7p0---|
D|----10-10-10----2-2-2-------------5s2s5-------|
A|----10-10-10----2-2-2-------------------------|
D|----10-10-10----2-2-2-------------------------|

then


e|----------------------------------------------|
B|--h7p0----h3----------------------------------|
G|--------------h7p0----------------------------|
D|----------------------------------------------|
A|----------------------------------------------|
D|----------------------------------------------|
reapeat a bunch



Important: The song above is NOT stored on the Chordie server. The original song is hosted at www.guitaretab.com. Chordie works as a search engine and provides on-the-fly formatting. Chordie does not index songs against artists/composers will. To remove this song please click here.

This song is displayed as text-only. Transposing and tuning is only available for chordpro-songs.

Login - add to songbook

Rating click stars to rate

Layout
Accuracy

SHARE PAGE  

You need to log in to post comments