Guitar Tabs, Chords and Lyrics


Absinthe Party At The Fly Honey Warehouse   Minus The Bear



Dave
Intro
|------------------|------------------|
|------------------|------------------|
|------------12p-0-|------------12p-0-|
|------12p-0-------|------12p-0-------|
|------------------|------------------|
|-0h-5-------------|-0h-5-------------|
                                                            
|-----------------|-----------------|-----------------|
|-----------------|-----------------|-----------------|
|-----------12p-0-|-----------12p-0-|-----------12p-0-|
|-----12p-0-------|-----12p-0-------|-----12p-0-------|
|-----------------|-----------------|-----------------|
|-0h-5------------|-0h-5------------|-0h-9------------|
                                                             
|------------------|-----------------|------------------|
|------------------|-----------------|------------------|
|------------12p-0-|-----------12p-0-|-----------12p-0--|
|------12p-0-------|-----12p-0-------|-----12p-0--------|
|------------------|-----------------|------------------|
|-0h-10------------|-0h-2------------|-0h-2-------------|
                                                           
|------------------|-----------------|
|------------------|-----------------|
|-----------12p--0-|-----------12p-0-| Repeat. 
|-----12p-0--------|-----12p-0-------|
|------------------|-----------------|
|-0h-2-------------|-0h-2------------|
    End on
|--------------------|
|--------------------|
|--------------------|
|--------------------|
|--------------------|
|-0h-2---------------|
                                                        
Dave
Verse
                                  *= Left hand             
|----------------|-----------------|
|----------------|-----------------|
|------*5--12--0-|-------*5--12--0-|
|--12------------|---12------------|
|----------------|-----------------|
|-5------------0-|-5-------------0-|
                                                     
|----------------|----------------|----------------|
|----------------|----------------|------*10-12--0-|
|------*5--12--0-|------*5--12--0-|--12------------|
|--12------------|--12------------|----------------|
|----------------|----------------|----------------|
|-5------------0-|-5------------0-|-9------------0-|
                                                 
|-------*10--12--0-|---------------|----------------|
|---12-------------|---------------|----------------|
|------------------|---7-----------|---7------------|
|------------------|------*5--7--0-|-------*5--7--0-|
|------------------|---------------|----------------|
|-10-------------0-|-2-------------|-2--------------|

                  Tap     Tap                   
|---------------|-----------------|
|---------------|-7--0--3---------|
|---7-----------|---------7--4--0-|
|------*5--7--0-|-----------------|
|---------------|-----------------|
|-2-------------|-----------------|

Dave
Chorus                                                      
     
|------------------------------------|
|------------------------------------|
|------------------------------------|
|--10--10--12--12---9---9--10-10-----|
|--10--10------------------10-10-----|
|--10--10------------------10-10-----|

|------------------------------------|
|------------------------------------|
|------------------------------------|
|---7---7--9----9---7---7---7--7-----|
|---7---7-------------------7--7-----|
|---7---7-------------------7--7-----|

|------------------------------------|
|------------------------------------|
|------------------------------------|
|---5---5--7----7---5---5---5--5-----|
|---5---5-------------------5--5-----|
|---5---5-------------------5--5-----|

|------------------------------------|
|------------------------------------|
|------------------------------------|
|---2---2--5----5--5--5--7----7------|
|---2---2----------5--5--------------|
|---2---2----------5--5--------------|

Then
|-----------------------------|
|-----------------------------|
|--4-------------------7p--0--|
|--4----5S--9S--5p--0---------| x2
|--2--------------------------|
|--2--------------------------|


Then.. slowed Bridge 1

|-----------------------|
|-----------------------|
|-----------------------|
|------12-9------9-7----|
|-10---------7----------|
|-10---------7----------|

Back to Verse. Chorus, etc.

Bridge 2
                                                   
|----------------------|
|---8---7--------------|
|----------7--9--0-----| repeat
|----------------------|
|----------------------|
|----------------------|

Outro
        
|--3-----------------|
|--5-----------------|
|--4-----------------|
|--2-----------------|x4
|--2-----------------|
|--2-----------------|


Important: The song above is NOT stored on the Chordie server. The original song is hosted at www.guitaretab.com. Chordie works as a search engine and provides on-the-fly formatting. Chordie does not index songs against artists'/composers' will. To remove this song please click here.

This song is displayed as text-only. Transposing and tuning is only available for chordpro-songs.

Login - add to songbook

Rating click stars to rate

Layout
Accuracy

SHARE PAGE  




You need to log in to post comments