Chordie logo

Batisseur De Cathedrales   Misanthrope



			MISANTHROPE - "BATISSEUR DE CATHEDRALES"
				  Album "Visionnaire"

Transcribed by The Pastor from France

INTRO :
   GUITAR 1
|-------------------||------------------------------|
|-------------------||------------------------------|
|-------------------||------------------------------|
|----------11--9----||----------11------------------|
|-------4-----------||-------4------9--12--11--9----|
|----2--------------||----2-------------------------|

   GUITAR 2
|------------------------------|
|------------------------------|
|------------------------------|
|----------7--4-----4-----2----|
|-------4--------5-----4-------|
|----2-------------------------|

   GUITAR 3
|-----------------|
|-----------------|
|-----------------|
|----4------------|
|----4------------|
|----2----2--2----|
          .  .


RIFF 1 :
   GUITAR 1
|----------------------------------|
|----------------------------------|
|----------------------------------|
|----------11--9----------11-------|
|-------4--------------4------9----|
|----2--------------2--------------|

   GUITAR 2
|------------------------------|
|------------------------------|
|------------------------------|
|----------7--4-----4-----2----|
|-------4--------5-----4-------|
|----2-------------------------|


RIFF 2 :
   GUITARS 1 + 2
|------------------------------------------|
|------------------------------------------|
|------------------------------------------|
|----4---------------------4---------------|
|----4---------------------4---------------|
|----2----2--2--2----2--2--2----2--2--2----|
          .  .  .    .  .       .  .  .


RIFF 3 :
   BOTH GUITARS MUTED (PLAY NOTES TWICE)
|----------------------------------------------------------|
|----------------------------------------------------------|
|----------------------------------------------------------|
|----------------------------------------------------------|
|--------------------6-6-6-6-6-6-6-6--7-7-7-7--6-6--4-4----|
|-4-4-4-4--6-6--7-7----------------------------------------|

|-----------------------------------------------------------------------------------|
|-----------------------------------------------------------------------------------|
|-----------------------------------------------------------------------------------|
|-----------------------------------------------------------------------------------|
|--6-6-6-6-6-6-6-6--7-7-7-7--6-6--4-4-6-4-------------------------------------------|
|-----------------------------------------4-4-4-4-4-4-4-4--7-7--6-6--4-4--2-2--4-4--|


RIFF 4 :
   GUITARS 1 + 2
|-----------------------------------------------------------------------|
|--------------------------------------------------------------9--8-----|
|--------------------------------------------------------------10-9-----|

|--------------------7--5/7------------7--7/8---------------------------|
|--------------------5--3/5------------5--5/6--6-6-6-6-6-6-6-6----------|
|----5-5-5-5-5-5-5-5-----------5-5-5-5---------6-6-6-6-6-6-6-6----------|
     . . . . . . . .           . . . .         . . . . . . . .


RIFF 5 :
   GUITAR 2
|---------4-6--7-6-4----7-6-4-6-4-----------------|
|-------4------------4------------4--5-4-2-5-2----|
|----4--------------------------------------------|
|-------------------------------------------------|
|-------------------------------------------------|
|-------------------------------------------------|

Any corrections or suggestions :


Important: The song above is NOT stored on the Chordie server. The original song is hosted at www.guitaretab.com. Chordie works as a search engine and provides on-the-fly formatting. Chordie does not index songs against artists/composers will. To remove this song please click here.

This song is displayed as text-only. Transposing and tuning is only available for chordpro-songs.

Login - add to songbook

Rating click stars to rate

Layout
Accuracy

SHARE PAGE  

You need to log in to post comments