Guitar Tabs, Chords and Lyrics


Ending Theme   Misc. Cartoons



===============================================================================
                Spongebob Squarepants Ending Theme Acoustic
-------------------------------------------------------------------------------
Tabbed by: stephanie_7368
Email:     stephanie_7368@yahoo.com

legends:
  x -> mute the string    
  h -> hammer-on


*CAPO ON 7TH FRET

     x02222                            x02222
     1 * * * 2 * * * 3 * * * 4 * * *   1 * * * 2 * * * 3 * * * 4 * * *
  e|---------------------------------|---------------------------------|
  B|-----2-x-----2-x-----2-x-----2-x-|-----2-x-----2-x-----2-x-----2-x-|
  G|-----2-x-----2-x-----2-x-----2-x-|-----2-x-----2-x-----2-x-----2-x-|
  D|-----2-x-2-----x-----2-x-2-----x-|-----2-x-2-----x-----2-x-2-----x-|
  A|-0---------------0---------------|-0---------------0---------------|
  E|---------------------------------|---------------------------------|

     x02222                            x02222
     1 * * * 2 * * * 3 * * * 4 * * *   1 * * * 2 * * * 3 * * * 4 * * *
  e|--------2------------------------|--------2------------------------|
  B|-5--45-x-5---2-x-----2-x-----2-x-|-5--45-x-5---2-x-----2-x-----2-x-|
  G|-----2-x-----2-x-----2-x-----2-x-|-----2-x-----2-x-----2-x-----2-x-|
  D|-----2-x-2-----x-----2-x-2-----x-|-----2-x-2-----x-----2-x-2-----x-|
  A|-0---------------0---------------|-0---------------0---------------|
  E|---------------------------------|---------------------------------|

     x02222                            x02222
     1 * * * 2 * * * 3 * * * 4 * * *   1 * * * 2 * * * 3 * * * 4 * * *
  e|--------2------------------------|--------2------------------------|
  B|-5--45-x-5---2-x-----2-x-----2-x-|-5--45-x-5---2-x-----2-x---------|
  G|-----2-x-----2-x-----2-x-----2-x-|-----2-x-----2-x-----2-x---------|
  D|-----2-x-2-----x-2-----x-----2-x-|-----2-x-2-----x-----2-x-2x------|
  A|-0-----------------------0-------|-0---------------0---------------|
  E|---------------------------------|---------------------------------|

     xx210x                                            x02222
     1 * * * 2 * * * 3 * * * 4 * * *   1 * * * 2 * * * 3 * * *
  e|---------------------------------|-------------------------|
  B|-----0-x-----0-x-----0-x-----0-x-|-----0-x-----0-x-----2-x-|
  G|-----1-x-1-----x-----1-x-1-----x-|-----1-x-1-----x-----2-x-|
  D|-2-----x---------2-----x---------|-2-----x---------2-----x-|
  A|---------------------------------|-------------------------|
  E|---------------------------------|-------------------------|

     x02222                            x02222              x02225
     1 * * * 2 * * * 3 * * * 4 * * *   1 * * * 2 * * * 3 * * * 4 * * *
  e|------------------------2--------|---------------------5-x-5-----x-|
  B|-----2-x-----2-x-5--45-x-5---2-x-|-----2-x-----2-x-----2-x-2-----x-|
  G|-----2-x-----2-x-----2-x-----2-x-|-----2-x-----2-x-----2-x-2-----x-|
  D|-----2-x-2-----x-----2-x-2-----x-|-----2-x-2-----x-----2-x-2-----x-|
  A|-0---------------0---------------|-0---------------0---------------|
  E|---------------------------------|---------------------------------|

     xxx667          x02225            xxx778          x02225
     1 * * * 2 * * * 3 * * * 4 * * *   1 * * * 2 * * * 3 * * * 4 * * *
  e|-7--97--97---x-------5-x-5---5--7|-8-x-8-x-8-x75-----------2-------|
  B|-6-x-6-x-6---x-------2-x-2-------|-7-x-7-x-7-x-----5--45-x---5---2-|
  G|-6-x-6-x-6---x-------2-x-2-------|-7-x-7-x-7-x---------2-x-------2-|
  D|---------------------2-x-2-------|---------------------2-x---2-----|
  A|-----------------0---------------|-----------------0---------------|
  E|---------------------------------|---------------------------------|

     xx2040  xxx200  x02224
     1 * * * 2 * * * 3 * * * 4 * * *   1 * * * 2 * * * 3 * * * 4 * * *
  e|-0---0--20----4--4--h5-----------|---------------------------------|
  B|----4----------------2-x-----2-x-|---------------------------------|
  G|---------2-----------2-x-----2-x-|---------------------------------|
  D|-2-------------------2-x-2-----x-|---------------------------------|
  A|-----------------0---------------|-0-------------------------------|
  E|---------------------------------|---------------------------------|



Important: The song above is NOT stored on the Chordie server. The original song is hosted at www.guitaretab.com. Chordie works as a search engine and provides on-the-fly formatting. Chordie does not index songs against artists'/composers' will. To remove this song please click here.

This song is displayed as text-only. Transposing and tuning is only available for chordpro-songs.

Login - add to songbook

Rating click stars to rate

Layout
Accuracy

SHARE PAGE  




You need to log in to post comments