Chordie logo

Sesame Street Theme  Misc. Children

----------------------------------------------------------------------------



----------------------------------------------------------------------------










[C]Sunny [F]Day Sweepin' the[C]  clouds a[F]way
[C]On my [F]way to where the [G]air is sweet [BCD]
[D]Can you [Eb]tell [D]me [C]how [A]to [G]get,  [G]How [A]to [Bb]get [A]to [G]Se[C]same Street

CC DD EbEb DEbD (repeat)

[C]Come and [F]play Everything's [C]A-O[F]K
[C]Friendly [F]neighbors there That's [G]where we meet [BCD]
[D]Can you [Eb]tell [D]me [C]how [A]to [G]get,  [G]How [A]to [Bb]get [A]to [G]Se[C]same Street

CC DD EbEb DEbD (repeat)

[A]It's a magic [E7]carpet ride [A]Every door will [E7]open wide
[A]To Happy people like [E7]you-- [A]Happy people like [A]What a beautiful

[C]Sunny [F]Day Sweepin' the[C]  clouds a[F]way
[C]On my [F]way to where the [G]air is sweet [BCD]
[D]Can you [Eb]tell [D]me [C]how [A]to [G]get,  [G]How [A]to [Bb]get [A]to [G]Se[C]same Street
[G]How [A]to [Bb]get [A]to [G]Se[C]same Street
[G]How [A]to [Bb]get [A]to [G]Se[C]same Street

CC DD EbEb DEbD (repeat)

Now, here's the melody line in tab
Tuning: Standard Key of C 4/4 time

e|--------|--------|--------|--------|
B|1-1-3-3-|4-4-343-|1-1-3-3-|4-4-343-|
G|--------|--------|--------|--------|
D|--------|--------|--------|--------|
A|--------|--------|--------|--------|
E|--------|--------|--------|--------|
|---------------------------------------|
|-1----------1------1-------------0-1-3-|
|---2----02----2-------2------0-2-------|
|-----3-3--------3--------3-3-----------|
|---------------------------------------|
|---------------------------------------|
|----------------------------------|
|-0-1-3-4-3-1----------------1-1-1-|
|-------------2-0--0-2-3-2-0-------|
|----------------------------------|
|----------------------------------|
|----------------------------------|
|--------|--------|--------|--------|
|1-1-3-3-|4-4-343-|1-1-3-3-|4-4-343-|
|--------|--------|--------|--------|
|--------|--------|--------|--------|
|--------|--------|--------|--------|
|--------|--------|--------|--------|
|---------------------------------------|
|-1----------1------1-------------0-1-3-|
|---2----02----2-------2------0-2-------|
|-----3-3--------3--------3-3-----------|
|---------------------------------------|
|---------------------------------------|
|----------------------------------|
|-0-1-3-4-3-1----------------1-1-1-|
|-------------2-0--0-2-3-2-0-------|
|----------------------------------|
|----------------------------------|
|----------------------------------|
|--------|--------|--------|--------|
|1-1-3-3-|4-4-343-|1-1-3-3-|4-4-343-|

|--------|--------|--------|--------|
|--------|--------|--------|--------|
|--------|--------|--------|--------|
|--------|--------|--------|--------|
|----------------------------------|
|--------2-0---------------2-0-2-3-|
|-----2------2----------2----------|
|-2-2----------2---2-2-------------|
|----------------------------------|
|----------------------------------|
|-------------0-----------------------|
|---0-2-0---0------0-2-0------0-2-0---|
|-2-------2------2-------2--2-------2-|
|-------------------------------------|
|-------------------------------------|
|-------------------------------------|
|---------------------------------------|
|-1----------1------1-------------0-1-3-|
|---2----02----2-------2------0-2-------|
|-----3-3--------3--------3-3-----------|
|---------------------------------------|
|---------------------------------------|
|----------------------------------|
|-0-1-3-4-3-1----------------1-1-1-|
|-------------2-0--0-2-3-2-0-------|
|----------------------------------|
|----------------------------------|
|----------------------------------|
|-----------------|
|-----------1-1-1-|
|-0-2-3-2-0-------|
|-----------------|
|-----------------|
|-----------------|
|-----------------|
|-----------------|
|-0-2-3-2-0-------|
|-----------------|
|-----------3-3-3-|
|-----------------|
|--------|--------|--------|--------|
|1-1-3-3-|4-4-343-|1-1-3-3-|4-4-343-|
|--------|--------|--------|--------|
|--------|--------|--------|--------|
|--------|--------|--------|--------|
|--------|--------|--------|--------|



============================================================================

Important: The song above is NOT stored on the Chordie server. The original song is hosted at www.guitaretab.com. Chordie works as a search engine and provides on-the-fly formatting. Chordie does not index songs against artists/composers will. To remove this song please click here.

A Bb C D E7 Eb F G
variations - click chord images

Login - add to songbook

Transpose chords

Tuning

Rating click stars to rate

Layout
Accuracy

SHARE PAGE  



You need to log in to post comments