Guitar Tabs, Chords and Lyrics


Farmer In The Dell   Misc. Children



T = tie
R = rest
6/8

   H     E    E      Q    E  Q   E     Q.      Q   E
|-----------------|-----------------|-----------------|
|-----------------|-----------------|-----------------|
|-----------------|--0----0--0---0--|--0---T---0---2--|
|--R-----R----0---|-----------------|-----------------|
|-----------------|-----------------|-----------------|
|-----------------|-----------------|-----------------|
   Q    E  Q   E     Q.      Q   E     Q.  Q   E
|-----------------|-----------------|----------0------|
|--0----0--0---0--|--0---T---0---R--|--3---3----------|
|-----------------|-----------------|-----------------|
|-----------------|-----------------|-----------------|
|-----------------|-----------------|-----------------|
|-----------------|-----------------|-----------------|
    Q   E  Q   E      Q   E  Q   E     Q.      Q
|-----------------|-----------------|-----------------|
|---3---0---------|---0---0---------|-----------------|
|----------0---2--|----------2---2--|--0---T---0------|
|-----------------|-----------------|-----------------|   x9
|-----------------|-----------------|-----------------|
|-----------------|-----------------|-----------------|

1) The farmer in the dell,
   The farmer in the dell,
   Heigho the derryo,
   The farmer in the dell.

2) The farmer takes a wife

3) The wife takes a child

4) The child takes a nurse

5) The nurse takes a dog

6) The dog takes a cat

7) The cat takes a rat

8) The rat takes a cheese



Important: The song above is NOT stored on the Chordie server. The original song is hosted at www.guitaretab.com. Chordie works as a search engine and provides on-the-fly formatting. Chordie does not index songs against artists/composers will. To remove this song please click here.

This song is displayed as text-only. Transposing and tuning is only available for chordpro-songs.

Login - add to songbook

Rating click stars to rate

Layout
Accuracy

SHARE PAGE  




You need to log in to post comments