Guitar Tabs, Chords and Lyrics


Carol Of The Bells   Misc. Christmas



Carol of the Bells
Tabbed by: J Mud
Standard Tuning (I don't use low E,A,or D strings)
12/23/07

Riff 1                 Riff 2
e|-6-5-6-3--6-5-6-3--| e|-10-8-10-6--10-8-10-6--|
B|o-----------------o| B|o---------------------o|
G|-------------------| G|-----------------------|
D|-------------------| D|-----------------------|
A|o-----------------o| A|o---------------------o|
E|-------------------| E|-----------------------|
          X2                        X2
Riff 3 (moderatly faster)
e|-15-15-15-13-11-------------------------------------------|
B|o----------------15-15-15-13-11-13-13-13-15-13-11--------o|
G|---------------------------------------------------12-12--|
D|----------------------------------------------------------|
A|o--------------------------------------------------------o|
E|----------------------------------------------------------| 
                               X2 
Riff 4 (fast)
e|-------------6-8-10-8-6-6--|
B|o-----7-8-10--------------o|
G|--7-9----------------------|
D|---------------------------|
A|o-------------------------o|
E|---------------------------|
              X2

Repeat Riff 1 to end song.



Important: The song above is NOT stored on the Chordie server. The original song is hosted at www.guitaretab.com. Chordie works as a search engine and provides on-the-fly formatting. Chordie does not index songs against artists/composers will. To remove this song please click here.

This song is displayed as text-only. Transposing and tuning is only available for chordpro-songs.

Login - add to songbook

Rating click stars to rate

Layout
Accuracy

SHARE PAGE  




You need to log in to post comments