Guitar Tabs, Chords and Lyrics


Christmas Eve   Misc. Christmas



great melody 
enjoy

verse
e|----------------------------------------------------------------------|
B|----------------------------------------------------------------------|
G|------------------------------------2-0-2----2-0-2----2-0-2----2-0-2--|
D|3-1-3-0--3-1-3-0--3-1-3-0--3-1-3-0--------3--------3--------3--------3|
A|----------------------------------------------------------------------|
E|----------------------------------------------------------------------|

bridge
e|----------------------------------------|
B|----------------------------------------|
G|------------0-2-0----------------0-2-0--|
D|------0-2-3-------3--------0-2-3-------3|
A|0-2-3----------------0-2-3--------------|
E|----------------------------------------|

chorus
e|--------------------------------|
B|1-1--0---0-0-----------0--------|
G|-------2------2-0-2-2----2------|   X2
D|---------------------------2-2-2|
A|--------------------------------|
E|--------------------------------|
                              
order:                       
                           
verse                     
bridge                    
chorus                   
bridge                  
chorus                 
verse                 


Important: The song above is NOT stored on the Chordie server. The original song is hosted at www.guitaretab.com. Chordie works as a search engine and provides on-the-fly formatting. Chordie does not index songs against artists'/composers' will. To remove this song please click here.

This song is displayed as text-only. Transposing and tuning is only available for chordpro-songs.

Login - add to songbook

Rating click stars to rate

Layout
Accuracy

SHARE PAGE  




You need to log in to post comments