Guitar Tabs, Chords and Lyrics


Jingle Bells Rock  Misc. Christmas

e|----------------------------------------------------------------------77777-7-|


B|-7-7-7--7-7-7---------------------------------------------------------77777-7-|


G|-7-7-7--6-6-6-4-6-4-0--3-4-6-4-066-4-6-4-0--002-346-40-234-6-4-6-4-66/77777-7-|

D|------------------------------------------------------------------------------|
A|------------------------------------------------------------------------------|
E|------------------------------------------------------------------------------|
e|--0-0-0---0-0-0---0-3-----0-|-1-1-1--1-1-0-0---0-0-----0-|---3--0-0-0----0-0-0----0-3-----0-|
b|----------------------1-3---|----------------------3-3---|-3--------------------------1-3---|
g|----------------------------|----------------------------|----------------------------------|
d|----------------------------|----------------------------|----------------------------------|
a|----------------------------|----------------------------|----------------------------------|
E|----------------------------|----------------------------|----------------------------------|
e|--1-1-1-1-1-0-0-0-3-3-1-----|
b|------------------------3-1-|
g|----------------------------|
d|----------------------------|
a|----------------------------|
E|----------------------------|
[D6]Jingle bells [DM7]swing and [Em]jingle bells r[A]ing
[Em]Snowin' and [A]blowin' up [Em]bushels of [A]fun
[E]Now the jingle hop [A+5]has begun
J[D]ingle bell, [DM7]jingle bell, [D6]jingle bell [DM7]rock
[D6]Jingle bells [DM7]chime in j[Em]ingle bell t[A]ime
[Em]Dancin' and [A]prancin' in Ji[Em]ngle Bell S[A]quare
[E]In the f[A]rosty a[D]ir  [D7]
What a [G]bright time, it's the [Gm]right time
To [D]rock the night away
Jingle [E]bell time is a swell time
[A]   To go glidin' in a one-horse sleigh
[D]Giddy-up [DM7]jingle horse, p[D6]ick up your [DM7]feet
[D6]Jingle ar[DM7]ound the c[B]lock
[G]Mix and a-mingle in the j[Gm]inglin' feet
[E]  That's the j[A]ingle bell r[D]ock
Jingle bell, jingle bell, jingle bell rock (repeat verse1's
Jingle bells chime in jingle bell time last 4 lines)
Dancin' and prancin' in Jingle Bell Square
In the frosty air

What a bright time, it's the right time
To rock the night away
Jingle bell time is a swell time
To go glidin' in a one-horse sleigh
Giddy-up jingle horse, pick up your feet
Jingle around the clock
[G]Mix and a-mingle in the j[Gm]inglin' feet
[E]That's the j[A]ingle bell
[E]That's the j[A]ingle bell
[E]That's the j[A]ingle bell r[D]ock(may try to post guitar lick here too)

Important: The song above is NOT stored on the Chordie server. The original song is hosted at www.guitaretab.com. Chordie works as a search engine and provides on-the-fly formatting. Chordie does not index songs against artists'/composers' will. To remove this song please click here.

Text color:
Chord color:
Chord grids: 
Font size:    
Page size: 

A A+5 B D D6 D7 Dm7 E Em G Gm
variations - click chord images

Login - add to songbook

Transpose chords

Tuning

Rating click stars to rate

Layout
Accuracy

SHARE PAGE  




You need to log in to post comments