Guitar Tabs, Chords and Lyrics


Stilla Natt   Misc. Christmas



Inte rätt rytm men skit i det =P


                x2
e|-----0----------|--5-----5----2--|--3-----3-------|--0-0-0--3--2--0|
B|--3----3---0----|----------------|-------------3--|----------------|
G|----------------|----------------|----------------|----------------|
D|----------------|----------------|----------------|----------------|
A|----------------|----------------|----------------|----------------|
E|----------------|----------------|----------------|----------------|


e|-----0----------|-0-0--3---2-0---|-----0----------|--5-5-5-8-5-----|--------7~~~~---|
B|--3----3--0-----|----------------|--3----3--0-----|------------7---|--8~~~~~--------|
G|----------------|----------------|----------------|----------------|----------------|
D|----------------|----------------|----------------|----------------|----------------|
A|----------------|----------------|----------------|----------------|----------------|
E|----------------|----------------|----------------|----------------|----------------|

e|--3-------------|----------------|
B|-----3----0---3-|-1--------------|
G|----------------|-----2-----0~~--|
D|----------------|----------------|
A|----------------|----------------|
E|----------------|----------------|





Important: The song above is NOT stored on the Chordie server. The original song is hosted at www.guitaretab.com. Chordie works as a search engine and provides on-the-fly formatting. Chordie does not index songs against artists'/composers' will. To remove this song please click here.

This song is displayed as text-only. Transposing and tuning is only available for chordpro-songs.

Login - add to songbook

Rating click stars to rate

Layout
Accuracy

SHARE PAGE  




You need to log in to post comments