Guitar Tabs, Chords and Lyrics


O Little Town Of Bethleham   Misc. Christmas



O Little Town of Bethleham
Misc Christmas

I love the way this song sounds in this tuning, it kind of a peaceful
and serene feeling to it. Enjoy!

Tuning: DADGAD

D|--4--|-4--4--3--4--|-7--5-----2--|-0----0-2-------|-4------4----|
A|-----|-0--0--0--0--|-------2-----|-0--4---2---0---|-0-----------|
G|-----|-2--2--1--2--|-5--4--------|-2------0-------|-2-----------|
D|-----|-0-----------|-4--2--------|-0------2-------|-0-----------|
A|-----|-------------|-------------|--------0-------|-------------|
D|-----|-------------|-------------|----------------|-------------|

|-4--4--9--7--|--7--------------|-0------0-4---2-|-0--------4---|
|-0--0--0-----|-10--10-------7--|-0---4----0-----|-0------------|
|-2--2--8-----|--7--------------|-2--------0-----|-0------------|
|-0-----------|----------9------|-4--------2-----|-0---2/4------|
|----3--------|--7--------------|-0--------0-----|-0------------|
|-------9-----|-----------------|----------------|-0------------|

|-4--4--2--0--|------------|-------0--2--|-4--------4---|
|-0-----0--2--|-4----4--4--|----4--2--2--|-4------------|
|-2-----0-----|-3----3-----|-4--3-----0--|-3------------|
|-0--------3--|-4----2-----|-4--2--4-----|-4------------|
|-------------|------------|-5-----------|-----4--------|
|-------------|------------|-------------|-------4------|

|-4--4--3--4--|-7--5-----9--|-7--0--4---2-|-0--------0--|
|-0--0--0--0--|-------2--8--|-9-----0-----|-0-----------|
|-2--2--1--2--|-5--4-----7--|-7--1--0-----|-0--0--------|
|-0-----------|-4--2-----6--|-------2-----|-0----2/4----|
|-------------|-------------|-0--2--0-----|-0-----------|
|-------------|-------------|-------------|-0-----------|

---------



Important: The song above is NOT stored on the Chordie server. The original song is hosted at www.guitaretab.com. Chordie works as a search engine and provides on-the-fly formatting. Chordie does not index songs against artists'/composers' will. To remove this song please click here.

This song is displayed as text-only. Transposing and tuning is only available for chordpro-songs.

Login - add to songbook

Rating click stars to rate

Layout
Accuracy

SHARE PAGE  




You need to log in to post comments