Chordie logo

Oh Christmas Tree   Misc. Christmas



this is my first tab i ever put on here. so i hope you enjoy it. and it is almost
so i thought it would be good to put a little something i know for all to learn. so merry
-------------------------------------------------------------------------------
			     SONG NAME - Band Name
-------------------------------------------------------------------------------
Tabbed by:
Email:

Tuning:

e|------------------------------------------|--------------------------------|
B|------------------------------------------|--------------------------------|
G|------------------------------------------|7---7-9-7-7-5-4---5--5-7-5-5-4-2|
D|0-5-5-5-----7-9-9-9------9-7-9-10---7-7-5-|--9-----------------7-----------|
A|----------------------------------9-------|--------------------------------|
E|------------------------------------------|--------------------------------|

e|---------------|-------------------------------------------|
B|---------------|-------------------------------------------|
G|4-2-4-5--2-2-0-|-------------------------------------------|
D|-------4-------|0-5-5-5-----7-9-9-9------9-7-9-10--7-7-5~--|
A|---------------|----------------------------------9--------|
E|---------------|-------------------------------------------|

e
| /  slide up
| \  slide down
| h  hammer-on
| p  pull-off
| ~  vibrato
| +  harmonic
| x  Mute note


Important: The song above is NOT stored on the Chordie server. The original song is hosted at www.guitaretab.com. Chordie works as a search engine and provides on-the-fly formatting. Chordie does not index songs against artists/composers will. To remove this song please click here.

This song is displayed as text-only. Transposing and tuning is only available for chordpro-songs.

Login - add to songbook

Rating click stars to rate

Layout
Accuracy

SHARE PAGE  



You need to log in to post comments