Chordie logo


Level   Misc. Computer Games



Guitar

      T T  T T  T T  T T  T  T S  S.T  T T  T T  T T  T T  T  T S  S.T  
E||-------19-------------19----------------20-------------20-----------|
B||------------19-----------19------------------20-----------20--------|
G||-----------------20-----------20---17-------------21-----------21---|
D||--21----------------------------------------------------------------|
A||--------------------------------------------------------------------|
E||--------------------------------------------------------------------|


   T T  T T  T T  T T  T  T S  S.T  T  T  T T  T  T  T T  T  T  T T  S S   
-------19-------------19--------------------------------------------19---||
------------19-----------19---------------------------------21-22--------||
-----------------20-----------20---20-21-22---22-23-24---24--------------||
--21---------------------------------------------------------------------||
-------------------------------------------------------------------------||
-------------------------------------------------------------------------||


Bass

     S E  S S E  S S E  S S E  S    S E  S S E  S S S S S S S S S   
E||------------------------------|--------------------------------||
B||------------------------------|--------------------------------||
G||------------------------------|--------------------------------||
D||------------------------------|--------------------------------||
A||-------2------2------3------3-|-------2------2---------1---2---||


Important: The song above is NOT stored on the Chordie server. The original song is hosted at www.guitaretab.com. Chordie works as a search engine and provides on-the-fly formatting. Chordie does not index songs against artists/composers will. To remove this song please click here.

This song is displayed as text-only. Transposing and tuning is only available for chordpro-songs.

Login - add to songbook

Rating click stars to rate

Layout
Accuracy

SHARE PAGE  




You need to log in to post comments