Chordie logo

Lockjaws Saga   Misc. Computer Games



-------------------------------------------------------------------------------
	Donkey Kong Country 2: Lockjaw's Saga- Misc Computer Games

-------------------------------------------------------------------------------
Tabbed by:aziz razavi
Email:azizrazavi@hotmail.com

Tuning:Standard

                                            7x  7x  7x          7x  7x  7x
e|-3-3-3-3-3--6-6-6-6-6-3-3-3-3-3----------|-3-|-4-|-3-|-4-|-6-|-3-|-4-|-3-|
B|----4---4------4---4-----4---4-----4-3---|-4-|-6-|-4-|-4-|-6-|-4-|-6-|-4-|
G|----------5----------5---------5--5---3--|-5-|-5-|-5-|-5-|-7-|-5-|-5-|-5-|
D|---------------------------------6-----5-|---|---|---|-6-|-8-|---|---|---|
A|-----------------------------------------|---|---|---|---|---|---|---|---|
E|-----------------------------------------|---|---|---|---|---|---|---|---|

  2x
e|-4-|-3-3--3-3-3-3-|--1-3-4-3-1-3----|-4-6-3-3-3-3-|--1-3-4-3-1-3-4-4--3-3-|
B|-6-|-4-4--4-4-4-4-|-1-----------4-1-|-4-6-4-4-4-4-|-1------------6-6--4-4-|
G|-5-|-5-5--5-5-5-5-|-----------------|-5-7-5-5-5-5-|--------------5-5--5-5-|
D|---|--------------|-----------------|-6-8---------|-----------------------|
A|---|--------------|-----------------|-------------|-----------------------|
E|---|--------------|-----------------|-------------|-----------------------|

e|-3-3-3-3-|-----------------------|------1---3-1------|-|
B|-4-4-4-4-|--1-3-4-3-1-3-4--|-4-6-|-1-3-4-3-1---4-3-1-|-|
G|-5-5-5-5-|-1-------------1-|-4-6-|----------------3--|-|
D|---------|-----------------|-5-7-|-------------------|-|
A|---------|-----------------|-6-8-|-------------------|-|
E|---------|-----------------|-----|-------------------|-|

Enjoy!!!

| /  slide up
| \  slide down
| h  hammer-on
| p  pull-off
| ~  vibrato
| +  harmonic
| x  Mute note


Important: The song above is NOT stored on the Chordie server. The original song is hosted at www.guitaretab.com. Chordie works as a search engine and provides on-the-fly formatting. Chordie does not index songs against artists/composers will. To remove this song please click here.

This song is displayed as text-only. Transposing and tuning is only available for chordpro-songs.

Login - add to songbook

Rating click stars to rate

Layout
Accuracy

SHARE PAGE  

You need to log in to post comments