Guitar Tabs, Chords and Lyrics


Pager   Misc. Computer Games



BY: C.Mitchell   

i was sittin playin ma guitar one night while my friend was playin GTA 3 i had nothin better
to do so i came up with this.         

Standard Tuning

E|------------------------------------------------|
B|-------------8----------------------------------|
G|-9--9--7--9-----9--7--9--5--5--5--4--4--4--7--9-|
D|------------------------------------------------|
A|------------------------------------------------|
E|------------------------------------------------|

D- Tunning Version

E|-------------------------------------------------|
B|-------------------------------------------------|
G|-------------------------------------------------|
D|-9--9--7--9--12--9--7--9--5--5--5--4--4--4--7--9-|
A|-9--9--7--9--12--9--7--9--5--5--5--4--4--4--7--9-|


Important: The song above is NOT stored on the Chordie server. The original song is hosted at www.guitaretab.com. Chordie works as a search engine and provides on-the-fly formatting. Chordie does not index songs against artists'/composers' will. To remove this song please click here.

This song is displayed as text-only. Transposing and tuning is only available for chordpro-songs.

Login - add to songbook

Rating click stars to rate

Layout
Accuracy

SHARE PAGE  




You need to log in to post comments