Guitar Tabs, Chords and Lyrics


Big Blue   Misc. Computer Games



F-Zero: Big Blue
Tabbed by Rent A Ham


No 1 pos in this tab, if it says 1111111111 it means 5x 11th pos
not 10x 1th
It may seem difficult to read, but i find it easier to understand the
rytm this way.

The tab is'nt perfect, but it still sounds ok I think.

Intro
E|-----------------------------------------------|
B|-----------------------------------------------|
G|-----------------------------------------------|
D|-----9--97----7--79----9--97----7--79----------|
A|-----9--97----7--79----9--97----7--79----------|
E|-----7--75----5--57----7--75----5--57----------|

E|-------------------------------------------------|
B|-------------------------------------------------|
G|--------------------------------11-97------------|
D|-----9--97----7--79----9--97----11-977-74--------|
A|-----9--97----7--79----9--97----9--757-74--------|
E|-----7--75----5--57----7--75---------5-52--------|

Rythm Guitar
E|-----------------------------------------------|
B|-----------------------------------------------|
G|-----------------------------------------------|
D|-----9999999999777777777799999999997777777777--|
A|-----9999999999777777777799999999997777777777--|
E|-----7777777777555555555577777777775555555555--|

E|---------------------------------------------------|
B|---------------------------------------------------|
G|---------------------------------------------------|
D|-------55555-77-55555-4-55557777-11-11-11-11-11-11-|
A|-------55555-77-55555-4-55557777-11-11-11-11-11-11-|
E|-------33333-55-33333-2-33335555-9--9--9--9--9--9--|


E|-------------------------------------------------|
B|-------------------------------------------------|
G|-------------------------------------------------|
D|-711-57--9--97----7--79----9--97----7--79--------|
A|-711-57--9--97----7--79----9--97----7--79--------|
E|-59--35--7--75----5--57----7--75----5--57--------|

E|-----------------------------------------------|
B|-----------------------------------------------|
G|-----------------------------------------------|
D|-----9--97----7--79----9--97----7--74----------|
A|-----9--97----7--79----9--97----7--74----------|
E|-----7--75----5--57----7--75----5--52----------|


E|-----------------------------------------------|
B|-----------------------------------------------|
G|-----------------------------------------------|
D|-----9999999999777777777799999999997777777777--|
A|-----9999999999777777777799999999997777777777--|
E|-----7777777777555555555577777777775555555555--|

E|---------------------------------------------------|
B|---------------------------------------------------|
G|---------------------------------------------------|
D|-------55555-77-55555-4-55557777-11-11-11-11-11-11-|
A|-------55555-77-55555-4-55557777-11-11-11-11-11-11-|
E|-------33333-55-33333-2-33335555-9--9--9--9--9--9--|

Solo thingy
E|---------------------------------------------|
B|---------------------------------------------|
G|---------------------------------------------|
D|-----------------------------97575-----------|
A|----77791095-777910910-957910-----57---------|
E|---------------------------------------------|


(8x)
E|-----------------------------------------------|
B|-----------------------------------------------|
G|-----------------------------------------------|
D|-----9999999-7777777---------------------------|
A|-----9999999-7777777---------------------------|
E|-----7777777-5555555---------------------------|


E|-----------------------------------------------|
B|-----------------------------------------------|
G|-----------------------------------------------|
D|-71157--9--97----7--79----9--97----7--79-------|
A|-71157--9--97----7--79----9--97----7--79-------|
E|-59-35--7--75----5--57----7--75----5--57-------|

End
E|-----------------------------------------------|
B|-----------------------------------------------|
G|-----------------------------------------------|
D|-----------------------------------------------|
A|-----------------------------------------------|


Important: The song above is NOT stored on the Chordie server. The original song is hosted at www.guitaretab.com. Chordie works as a search engine and provides on-the-fly formatting. Chordie does not index songs against artists'/composers' will. To remove this song please click here.

This song is displayed as text-only. Transposing and tuning is only available for chordpro-songs.

Login - add to songbook

Rating click stars to rate

Layout
Accuracy

SHARE PAGE  




You need to log in to post comments