Guitar Tabs, Chords and Lyrics


Janken   Misc. Computer Games



Game: Alex Kidd In Miracle World
Song: Janken Game
Tuning: Standard (EADGBE)
Tabber: Dan Fallows (Sick of you)


E--17----15-17--17-----15-|-20----------------|----------15-15--------|
B-----17-----------17-----|----22--20--22--22-|-20----17-------15-17--|
G-------------------------|-------------------|----19-----------------|
D-------------------------|-------------------|-----------------------|
A-------------------------|-------------------|-----------------------|
E-------------------------|-------------------|-----------------------|

E--15-17--15-17--15--|-17----15-17--17----15-|-20-------------|
B--------------------|----17-----------17----|----22-20-22-22-|
G--------------------|-----------------------|----------------|
D--------------------|-----------------------|----------------|
A--------------------|-----------------------|----------------|
E--------------------|-----------------------|----------------|

E-----------------------|----20-20-|--------------0-|
B--------20-22-20-22-20-|-22-------|----------------|
G-----21----------------|----------|--15-----15-----|
D--24-------------------|----------|----------------|
A-----------------------|----------|------17-----17-|
E-----------------------|----------|----------------|



Important: The song above is NOT stored on the Chordie server. The original song is hosted at www.guitaretab.com. Chordie works as a search engine and provides on-the-fly formatting. Chordie does not index songs against artists'/composers' will. To remove this song please click here.

This song is displayed as text-only. Transposing and tuning is only available for chordpro-songs.

Login - add to songbook

Rating click stars to rate

Layout
Accuracy

SHARE PAGE  




You need to log in to post comments