Guitar Tabs, Chords and Lyrics


E Gypsy Scale   Misc. Scales



----------------------------------------------------------------------------
			     E gypsy scale - misc scales
----------------------------------------------------------------------------
Tabbed by:Steve the man!
Email:allchavsrgay@hotmail.com

Tuning:Eadgbe

Yes this is a real scale. This scale includes the notes E,F,G#,A,B,C# and D.
It is called gypsy scale because of the sound and its use in hungarian music. It 
a harmonic minor scale but this one has an agmented 4th

e|---------------------0-1--|-------------------------4-5------|
B|-----------------0-2------|-------------------2-3-5----------|
G|-------------1-2----------|---------------2-4----------------|
D|---------0-2--------------|-----------2-3--------------------|
A|-----0-2------------------|-----2-4-5------------------------|
E|-0-1----------------------|-4-5------------------------------|

e|--------------------------7-9-10-|--------------------------------9-10-12|
B|--------------------6-9-10-------|-------------------------9-10-12-------|
G|---------------6-7-9-------------|---------------------9-10--------------|
D|----------6-7-9------------------|--------------9-11-12------------------|
A|-------7-8-----------------------|---------11-12-------------------------|


Important: The song above is NOT stored on the Chordie server. The original song is hosted at www.guitaretab.com. Chordie works as a search engine and provides on-the-fly formatting. Chordie does not index songs against artists/composers will. To remove this song please click here.

This song is displayed as text-only. Transposing and tuning is only available for chordpro-songs.

Login - add to songbook

Rating click stars to rate

Layout
Accuracy

SHARE PAGE  




You need to log in to post comments