Chordie logo

Ghost Rider Theme   Misc. Soundtrack



                 Ghost Rider Theme - Ghost Rider Soundtrack
Tabbed by:DESANN88
Email:desann88@yahoo.com

Tuning:Standard

This is my first Tab so hope you like it and hope it works for you.


e|--------------------------------------------------------------------------|
B|--------------------------------------------------------------------------|
G|--------------------------------------------------------------------------|
D|--------------------------------------------------------------------------|
A|----0--0--2--3--3--0------------------------------------------------------|
E|0---------------------3--3--0--3------------------------------------------|

e|--------------------------------------------------------------------------|
B|--------------------------------------------------------------------------|
G|----------------------------------0--2--2--0------------------------------|
D|----------------------2--2--0--2--------------2--2--0---------------------|
A|----0--0--2--3--3--0-----------------------------------3--3--0------------|
E|0---------------------------------------------------------------3---------|

e|--------------------------------------------------------------------------|
B|--------------------------------------------------------------------------|
G|--------------------------------------------------------------------------|
D|--------------------------------------------------------------------------|
A|----0--0--2--3--3--0------------------------------------------------------|
E|0---------------------3--3--0--3------------------------------------------|

e|--------------------------------------------------------------------------|
B|--------------------------------------------------------------------------|
G|----------------------------------0--2--2--0------------------------------|
D|----------------------2--2--0--2--------------2--2--0---------------------|
A|----0--0--2--3--3--0-----------------------------------3--3--0--------0---|
E|0---------------------------------------------------------------3---0-----|

e|0-------------------------------------------------------------------------|
B|0-------------------------------------------------------------------------|
G|0-------------------------------------------------------------------------|
D|0-------------------------------------------------------------------------|
A|0-------------------------------------------------------------------------|
E|0-------------------------------------------------------------------------|


| /  slide up
| \  slide down
| h  hammer-on
| p  pull-off
| ~  vibrato
| +  harmonic
| x  Mute note


Important: The song above is NOT stored on the Chordie server. The original song is hosted at www.guitaretab.com. Chordie works as a search engine and provides on-the-fly formatting. Chordie does not index songs against artists/composers will. To remove this song please click here.

This song is displayed as text-only. Transposing and tuning is only available for chordpro-songs.

Login - add to songbook

Rating click stars to rate

Layout
Accuracy

SHARE PAGE  

You need to log in to post comments