""; ?> Godfather Theme by Misc. Soundtrack - guitar chords, guitar tabs and lyrics - chordie

Godfather Theme

Misc. Soundtrack

 EEEEEEEE
E||----------------0--3--0--2--|
B||---0--5s--8--7-----------1--|
G||*---------------------------|
D||*---------------------------|
A||----------------------------|
E||-------------0-----------0--|


 EEEEEEEE
--0-----------------------|
-----1--3--5-----------5--|
--------------4-----4-----|
-----------------5--------|
--------------------------|
-----------0--------------|


 EEEEEEEE
---------------0--3--0--2h--|
-----5s--8--7-----------0---|
--4---------------------0---|
----------------------------|
----------------------------|
------------0-----------3---|


 EEEEEEEE
--0-----------------------|
-----0--------------------|
--------0--2--------------|
--------------2-----2-----|
-----------0-----3-----0--|
--------------------------|


 EEEEEEEE
---------------------------|
---------4--7-----------7--|
--2s--5--------5-----5-----|
------------------7--------|
------------0--------------|
---------------------------|


 EEEEEEEE
-----------------------0--|
--------------0-----0-----|
-----5--8--9-----0--------|
--7-----------------------|
--------------------------|
-----------0--------------|


 EEEEEEEE
--------------------------|
--------3--1--0--3--1--1--|
-----0-----0-----------2--|
--2-----------------------|
-----------2-----------2--|
--------------------------|


 EEEEEEEE
---------------------------||
--0--0---------------------||
--------------------------*||
--------1--2--------------*||
--------------2-----2------||
-----------0-----3-----0---||


E Q E E E E E
-----------------------0--2--|
--3b--3pbr----3--------------|
-----------------5--------2--|
--------------------4--------|
--------------5-----------0--|
-----------------------------|


|-3-|
S S S E E E E E E E
--0-2-0----------------------|
--------1-----0-----------0--|
-----------2-----0-----0-----|
--------------------0--------|
-----------------------------|
--------------3--------------|


 EEEEEEEE
--------------------------|
--0--3--0-----------------|
--0--------2-----------2--|
--------------3-----3-----|
-----------------3--------|
--3--------1--------------|


 EEEEEEEE
--------------------------|
-----1--------------------|
--2-----3--4--------------|
--------------4-----4-----|
-----------------6--------|
-----------7-----------7--|


 EEEEEEEE
---------------0--3--0--2--|
--0--5s--8--7-----------1--|
---------------------------|
---------------------------|
---------------------------|
------------0-----------0--|


 EEEEEEEE
--0-----------------------|
-----1--3--5-----------5--|
--------------4-----4-----|
-----------------5--------|
--------------------------|
-----------0--------------|


 EEEEEEEE
---------------0--3--0--2h--|
-----5s--8--7-----------0---|
--4---------------------0---|
----------------------------|
----------------------------|
------------0-----------3---|


 EEEEEEEE
--0-----------------------|
-----0--------------------|
--------0--2--------------|
--------------2-----2-----|
-----------0-----3-----0--|
--------------------------|


 EEEEEEEE
---------------------------|
---------4--7-----------7--|
--2s--5--------5-----5-----|
------------------7--------|
------------0--------------|
---------------------------|


Q E E E E E E
------------0-----------0--|
--7br----4--0--0-----0-----|
------------------0--------|
---------------------------|
---------------------------|
------------0--------------|


 EEEEEEEE
--------------------------|
--------3--1--0--3--1--1--|
-----0-----0-----------2--|
--2-----------------------|
-----------2-----------2--|
--------------------------|


^
 EEEEEEEE
-----------------------0--|
--0--0-----------------0--|
-----------------------0--|
--------1--2-----------2--|
--------------2-----2--2--|
-----------0-----3-----0--|


Duration Legend
---------------

W - whole
H - half
Q - quarter
E - 8th
S - 16th
T - 32nd
X - 64th
. - note dotted
|-n-| - n-tuplets

Tablature Legend
----------------

L - tied note
x - dead note
g - grace note
(n) - ghost note
> - accentuded note
NH - natural harmonic
AH - artificial harmonic
TH - tapped harmonic
SH - semi harmonic
PH - pitch harmonic
h - hammer on
p - pull off
b - bend
br - bendRelease
pb - preBend
pbr - preBendRelease
brb - bendReleaseBend
\n/ - tremolo bar dip
\n - tremolo bar dive
-/n - tremolo bar Release up
/n\ - tremolo bar inverted dip
/n - tremolo bar return
-\n - tremolo bar Release down
S - shift slide
s - legato slide
/ - slide into from below or out of upwards
\ - slide into from above or out of downwards
~ - vibrato
W - wide vibrato
tr - trill
TP - tremolo picking
T - tapping
S - slap
P - pop
< - fade in
^ - brush up
v - brush down


E
variations - click chord images
Transpose chords:
Tuning:
Cool service:
View: Size:
A  A  A
Rating:
Layout:
  • Currently 0/5 Stars.
  • 1
  • 2
  • 3
  • 4
  • 5
 
Accuracy:
  • Currently 0/5 Stars.
  • 1
  • 2
  • 3
  • 4
  • 5
 
click stars to rate
Chordie recommends:
Learn to play songs at Jamplay.com with video guitar lessons
Songbook:
Login to add this song to your songbook
Support the artist
Preview/buy this song
MSN Music
Why this non-profit ad?

 
login to add comments/video/corrections