That Thing You Do

Misc. Soundtrack

                   e----------------]

b---9-7-5-0-1----]
g---9-------2----]
d---9-------2----]
a---7------------]
e----------------]

 EABEABC#MF#F#M
   You  doin that thing you do  breakin my heart Into a million pieces like
 AB
you always do   
 EABEABC#MF#
      And you dont mean to be cruel you never even knew about the heartaches
 F#MDB
Ive been goin thru   
 C#MF#EE7AAM
   Well i try and try to forget you girl but its just so hard to do   
 EABE
every time you do that thing you do
 C#MF#F#M
   I dont ask a lot girl but i know one things for sure its your love i
 BCB
havent got girl and i just cant take it anymore    WWWHHHOOOAAA!

B= bend Solo

e---------------------------------------------------------------------------|
b---------------------------------------------------------------------------|
g---9-9----9-11B-9------9-9----9-11B-9----9----9-11b-9-11B-9-11-11B-9-11B---|
d-------11---------11-9-----11---------11---11------------------------------|
a---------------------------------------------------------------------------|
e---------------------------------------------------------------------------|
-----------------------------]
-----------------------------]
---9-11-11B-9----9----9---9--]
--------------11---10---9----]
-----------------------------]
-----------------------------]


 EABEABC#MF#
 we could be happy cant you see if you only let me be the one to hold you
 F#MAB
and keep you here with me   
 C#MF#EE7AAM
well i try and try to forget you girl but its just so hard to do   
 EABE
every time you do that thing you do

Outro (bass)

                             e-----------2-|
                             b-----------0-|
                             g-----------1-|
                             d---------2-2-|
                             a-------2---2-|
                             e---0-3-----0-|				



A Am B C C#m D E E7 F# F#m
variations - click chord images
Transpose chords:
Tuning:
Cool service:
View: Size:
A  A  A
Rating:
Layout:
  • Currently 2.7/5 Stars.
  • 1
  • 2
  • 3
  • 4
  • 5
 
Accuracy:
  • Currently 3/5 Stars.
  • 1
  • 2
  • 3
  • 4
  • 5
 
click stars to rate
Chordie recommends:
Learn to play guitar with video-based, online guitar lessons at JamPlay.com
Songbook:
Login to add this song to your songbook
Support the artist
Preview/buy this song
MSN Music
Why this non-profit ad?

 
login to add comments/video/corrections