Chordie logo

That Thing You Do  Misc. Soundtrack

                   e----------------]


                   b---9-7-5-0-1----]


                   g---9-------2----]


                   d---9-------2----]


                   a---7------------]


                   e----------------]



   [E]You  d[A]oin that t[B]hing you [E]do  b[A]reakin my [B]heart I[C#M]nto a million [F#]pieces [F#M]like
you always d[A]o  [B]
      And y[E]ou d[A]ont mean t[B]o be cr[E]uel you ne[A]ver e[B]ven k[C#M]new about the he[F#]artaches
I[F#M]ve been goin thr[D]u  [B]
   Well i [C#M]try and try to for[F#]get you girl but its j[E]ust so h[E7]ard to d[A]o  [AM]
e[E]very time you d[A]o that t[B]hing you d[E]o
   [C#M]I dont ask a lot girl but i k[F#]now one things for sure its your l[F#M]ove i
havent got girl and i ju[B]st cant take it a[C]nymo[B]re    WWWHHHOOOAAA!

B= bend Solo

e---------------------------------------------------------------------------|
b---------------------------------------------------------------------------|
g---9-9----9-11B-9------9-9----9-11B-9----9----9-11b-9-11B-9-11-11B-9-11B---|
d-------11---------11-9-----11---------11---11------------------------------|
a---------------------------------------------------------------------------|
e---------------------------------------------------------------------------|
-----------------------------]
-----------------------------]
---9-11-11B-9----9----9---9--]
--------------11---10---9----]
-----------------------------]
-----------------------------]


[E]we could be ha[A]ppy c[B]ant you s[E]ee if you on[A]ly l[B]et me [C#M]be the one to h[F#]old you
and k[F#M]eep you here with m[A]e  [B]
well i [C#M]try and try to for[F#]get you girl but its j[E]ust so h[E7]ard to [A]do  [AM]
ev[E]ery time you [A]do that th[B]ing you [E]do

Outro (bass)

                             e-----------2-|
                             b-----------0-|
                             g-----------1-|
                             d---------2-2-|
                             a-------2---2-|
                             e---0-3-----0-|				


Important: The song above is NOT stored on the Chordie server. The original song is hosted at www.guitaretab.com. Chordie works as a search engine and provides on-the-fly formatting. Chordie does not index songs against artists/composers will. To remove this song please click here.

A Am B C C#m D E E7 F# F#m
variations - click chord images

Login - add to songbook

Transpose chords

Tuning

Rating click stars to rate

Layout
Accuracy

SHARE PAGE  

You need to log in to post comments