Guitar Tabs, Chords and Lyrics


Baatein Kuch Ankahee Si  Misc. Soundtrack

e|--------------------------------|


B|--5---6/8-----------------------|


G|-----------5---7/2---4--5-6-----|

D|--------------------------------|
A|------5/7--3---5/0---2--3-5-----|
E|--------------------------------|
          [C]                  [Am]                 [F]                    [G]                         
e|--------------0------------------0-------------------1------------------3-------|
B|----------------1------------------1----------1--------1------------------3-----|
G|-------0----------0-------2----------2------2---0h2------2-------0----------0---|
D|-----2---0h2------------2---0h2-----------3-------------------------------------|
A|---3------------------0-----------------0---------------------2----0h2----------|
E|------------------------------------------------------------3-------------------|

Small Solo before stanza 2

e|----------------------------------------------|
B|-----------5-6-6/7-------6-5------------------|
G|-----4-5-7---------------5-5--7--7-5--4-5-----|
D|--/7-----------------------------5-5----------|
A|----------------------------------------------|
E|----------------------------------------------|


Ending Lick

e|-------------------|
B|---------5-7-8-----|
G|---4-5-7-----------|
D|-------------------|
A|-------------------|
E|-------------------|


| / slide up
| \ slide down
| h hammer-on


Verse
Ba[C]atein kuch[Am] ankaahe si
Kuch ann s[F]uni se honel[G]agi
Ka[C]bu dil pe raha [Am]na
Hasti hum[F]ari khone la[G]gi

Chorus
w[C]oooh Wo[F]ooh wo[C]oo woo w[G]ooh
wo[Am]oo woo wo[F]oh
Shaa[C]yad yeh[Csus2]i hai Py[C]aar
Shaa[C]yad yeh[Csus2]i hai Py[C]aar

[G]   [F]   [C]                              
[G]   [F]   [C]                              
Verse again

[C]   [G]   [Am]    [G]                           
[Am]    [G]   [F]   [Em]    [C]                       
Stanza 1
Ke[C]h de mujhse D[Am]il mein kya hai
Ai[Eb]sa bhi kya guro[C]or
Tu[C]jhko bhi to [Am]ho raha hai
Th[Eb]oda asar zar[C]oor
ho[Am] Yeh Khaamoshi je[Dm]ene na de
K[Em]oi to baat [G]ho [F]


Chorus
woh Wooh wooo woo wooh
Shayad yehi hai Pyaar x2


Verse
Baatein kuch ankaahe si
Kuch ann suni se honelagi
Kabu dil pe raha na
Hasti humari khone lagi
woooh Woooh wooo woo wooh
Shayad yehi hai Pyaar


[C]                                     
[C]   [Am]    [F]   [C]                           
Stanza 2 same chords as stanza 1
Tu hi meri roshni hai
Tu hi chiraag hai
Dheere dheere mit jaayege
Halka saa dhaag hai
Oh Yeh Zehar bhi yun peeya hai
Jaise sharaab ho

woooh Woooh wooo woo wooh
Shayad yehi hai Pyaar


Baatein kuch ankaahe si
Kuch ann suni se honelagi
Kaabu dil pe raha na
Hasti humari khone lagi
woooh Woooh wooo woo wooh
Shayad yehi hai Pyaar x2


Please rate. Thank you

Important: The song above is NOT stored on the Chordie server. The original song is hosted at www.guitaretab.com. Chordie works as a search engine and provides on-the-fly formatting. Chordie does not index songs against artists'/composers' will. To remove this song please click here.

Text color:
Chord color:
Chord grids: 
Font size:    
Page size: 

Am C Csus2 Dm Eb Em F G
variations - click chord images

Login - add to songbook

Transpose chords

Tuning

Rating click stars to rate

Layout
Accuracy

SHARE PAGE  




You need to log in to post comments