"yes"; ?> Cheers Theme by Misc. Soundtrack - guitar chords, guitar tabs and lyrics - chordie

Cheers Theme

Misc. Soundtrack

-------

 EADGBEEADGBE
A  (x02220)    D   (xx0232)
E (022100) C#m (x46654)
G (320033) F (133211)
F# (244322) Bb (x1333x)
Bm (x24432) G# (466544)
Eb (x6888x)

INTRO:
------

 AEAE
E|---5-------5-9-7--7------------------------|
B|---5-----5-----9--9---------------2--0--0--|
G|-------6-------9--9-----2-------2----1--1--|
D|---7--------------------2-----2------2--2--|
A|---------------7--7-----0---4--------------|
E|-------------------------------------0--0--|


VERSE 1:
--------

 AE
 Making your way in the world today
 AE
takes everything you've got
 AE
 Taking a break from all your worries
 AE
 sure would help a lot
 GF#BmE
   Wouldn't you like to get away?   

VERSE 2:
--------

 AE
 All those nights when you got no lights,
 AE
the check is in the mail
 AE
   And your little angel
 AE
hung the cat up by its' tail
 GF#Bm
   And your third fiance didn't show
 EA
    Sometimes you wanna go

(Play the E's in the
CHORUS like this:)
 E
E|------------|
B|--------0---|
G|--1--2------| Or of course you can just strum
D|--2---------| them normally.
A|--2---------|
E|--0---------|


CHORUS:
-------

 AGDE
 Where everybody knows your name   
 AGDE
   And they're always glad you came    
 C#mD
 You wanna be where you can see
 C#mD
That troubles are all the same
 C#mDEA
 You wanna be where everybody knows your name

 A2E2AE
E|---5-------5-9-7--7------------------------|
B|---5-----5-----9--9---------------2--0--0--|
G|-------6-------9--9-----2-------2----1--1--|
D|---7--------------------2-----2------2--2--|
A|---------------7--7-----0---4--------------|
E|-------------------------------------0--0--|


VERSE 3:
--------

 AE
You roll out of bed, Mr. Coffee's dead,
 AE
the morning's looking bright
 AE
   And your shrink ran off to Europe,
 AE
and didn't even write
 GF#Bm
   And your husband wants to be a girl
 EA
   Be glad there's one place in the world

CHORUS:
-------

 AGDE
 Where everybody knows your name    
 AGDE
   And they're always glad you came   
 C#mD
 You wanna go where people know
 C#mD
 People are all the same
 C#mDEA
 You wanna go where everybody knows your name

SOLO:
 -----
 Play these chords: (same as CHORUS)

 AGDEF
Play the last E and F chords
in the solo like this:
 EF
E|--------------------|
B|--------0--------1--|
G|--1--2-----2--3-----|
D|--2--------3--------|
A|--2--------3--------|
E|--0--------1--------|


OUTRO:
------

 BbG#EbF
   Where everybody knows your name     
 BbG#EbF
   And they're always glad you came    
 BbG#EbF
   Where everybody knows your name     
 BbG#EbF
   And they're always glad you came    
 BbG#EbF
   Where everybody knows your name     
 BbG#EbF
   And they're always glad you came    


A A2 Bb Bm C#m D E E2 Eb F F# G G#
variations - click chord images
Transpose chords:
Tuning:
Cool service:
View: Size:
A  A  A
Rating:
Layout:
  • Currently 3.3/5 Stars.
  • 1
  • 2
  • 3
  • 4
  • 5
 
Accuracy:
  • Currently 3.4/5 Stars.
  • 1
  • 2
  • 3
  • 4
  • 5
 
click stars to rate
Chordie recommends:
Get acoustic guitar lessons and electric guitar lessons at JamPlay.com
Songbook:
Login to add this song to your songbook
Support the artist
Preview/buy this song
MSN Music
Why this non-profit ad?

 
login to add comments/video/corrections