Addams Family Theme

Misc. Soundtrack

-------------------------------------------------------------------------------

-------------------------------------------------------------------------------

 12341234
e|--------------------x--------x--------------------------x--------x--|
B|--------------------x--------x--------------------------x--------x--|
G|--------------------x--------x--------------------------x--------x--|
D|--------------------x--------x--------------------------x--------x--|
A|--------0--1--------x--------x-----------0--2--3--------x--------x--|
E|--1--3--------------x--------x--------3-----------------x--------x--|


 12341234
e|--------------------------------------------------------x--------x--|
B|--------------------------------------------------------x--------x--|
G|--------------------------------------------------------x--------x--|
D|--------------------------------------------------------x--------x--|
A|-----0--2--3-----------0--2--3--------------0--1--------x--------x--|
E|--3-----------------3-----------------1--3--------------x--------x--|


 12341234
e|--------------------x--------x--------------------------x--------x--|
B|--------------------x--------x--------------------------x--------x--|
G|--------------------x--------x--------------------------x--------x--|
D|--------------------x--------x--------------------------x--------x--|
A|--------0--1--------x--------x-----------0--2--3--------x--------x--|
E|--1--3--------------x--------x--------3-----------------x--------x--|


 12341234
e|--------------------------------------------------------x--------x--|
B|--------------------------------------------------------x--------x--|
G|--------------------------------------------------------x--------x--|
D|--------------------------------------------------------x--------x--|
A|-----0--2--3-----------0--2--3--------------0--1--------x--------x--|
E|--3-----------------3-----------------1--3--------------x--------x--|
e|--6--6--6--|
B|--6--6--6--|
G|--6--6--6--|
D|-----------|
A|-----------|
E|-----------|


The tab above repeats throughout the song.

Lyrics:

They're creepy and they're kooky,
Mysterious and spooky,
They're all together ooky,
The Addams Family.

Their house is a museum
Where people come to see 'em
They really are a scream
The Addams Family.

(Neat)
(Sweet)
(Petite)

So get a witches shawl on
A broomstick you can crawl on
We're gonna pay a call on
The Adams Family.




variations - click chord images
Transpose chords:
Tuning:
Cool service:
View: Size:
A  A  A
Rating:
Layout:
  • Currently 0/5 Stars.
  • 1
  • 2
  • 3
  • 4
  • 5
 
Accuracy:
  • Currently 2.7/5 Stars.
  • 1
  • 2
  • 3
  • 4
  • 5
 
click stars to rate
Chordie recommends:
Learn to play songs at Jamplay.com with video guitar lessons
Songbook:
Login to add this song to your songbook
Support the artist
Preview/buy this song
MSN Music
Why this non-profit ad?

 
login to add comments/video/corrections