The Final Frontier

Misc. Soundtrack

 CF
Tell me why, I love you like I do,
 CF
Tell me who, Can stop my heart as much as you,
Fbar. C F C
Tell me all your secrets and I'll tell you most of mine,
 CF
They say nobody's perfect but it is really true this time,
 Am
I don't have the answers,
 F
And I don't have a plan,
 Am
All I have is you,
N.C. F/ F/ F/ G/
So darling help me under stand,
 C
What we do,
 F
You can whisper in my ear,
 C
Where we go,
 F
Who knows what happens after here,
 C
Let's take each other's hands,
 F/G/F/C
As we jump into the    final frontier,     
 FC
I'm mad about you,    
 FC
I'm mad about you,    
 FC
so mad about you...   

F C x6
 FC/

"/"= quick downstroke

Chords:

"C"
E---------------|
B-1-------------|
G---0-----------|
D-----2---------|
A-------3-------|
E-------3-------|


"F"
E---------------|
B-1-------------|
G-----2---------|
D-------3-------|
A-------3-------|
E---mute--------|


"Am"
E---------------|
B-1-------------|
G----2----------|
D----2----------|
A---------------|
E---------------|


"G"
E-------3-------|
B-------3-------|
G---------------|
D---------------|
A-----2---------|
E-------3-------|


"Fbar."
E-1-------------|
B-1-------------|
G----2----------|
D-------3-------|
A-------3-------|
E-1-------------|				



Am C F
variations - click chord images
Transpose chords:
Tuning:
Cool service:
View: Size:
A  A  A
Rating:
Layout:
  • Currently 0/5 Stars.
  • 1
  • 2
  • 3
  • 4
  • 5
 
Accuracy:
  • Currently 0/5 Stars.
  • 1
  • 2
  • 3
  • 4
  • 5
 
click stars to rate
Chordie recommends:
Get acoustic guitar lessons and electric guitar lessons at JamPlay.com
Songbook:
Login to add this song to your songbook
Support the artist
Preview/buy this song
MSN Music
Why this non-profit ad?

 
login to add comments/video/corrections