Guitar Tabs, Chords and Lyrics


Alfred Hitchcock Theme   Misc. Television




   Alfred Hitchcock theme


  I was bored tonight!, I'm pretty sure its 100& correct, just get the timing 
right, ORIGINAL NAME IS:

       "Funeral March of the Marionettes"
       Author:Unknown by me


--------------------------------------------------------------|
--------------------------------------------------------------|
-------------------------3----------------------------3-------|
-------6--6--5--3--5--6-------------6--6--5--3--5--6----------|
---------------------------6------------------------------6---|
---4----------------------------4-----------------------------|

-------------------------2---0------2--6---4----2--0-------------|
------------4--2---0--4-----------4-------------------4--2--0----|
---------4-----------------------------------------------------3-|  Back to Beginning
-----------------------------------------------------------------|
-----------------------------------------------------------------|


Important: The song above is NOT stored on the Chordie server. The original song is hosted at www.guitaretab.com. Chordie works as a search engine and provides on-the-fly formatting. Chordie does not index songs against artists/composers will. To remove this song please click here.

This song is displayed as text-only. Transposing and tuning is only available for chordpro-songs.

Login - add to songbook

Rating click stars to rate

Layout
Accuracy

SHARE PAGE  




You need to log in to post comments