Guitar Tabs, Chords and Lyrics


Eastenders Theme   Misc. Television



here is the tab for the eastenders theme tune


e|-----------------0------------------------------------------------------|
B|--------0--1--3-----1----------1--0----------------------1--------------|
G|--0--2-------------------------------2--0--0---------0-------0--2-------|
D|----------------------------------------------0--0----------------------|
A|------------------------------------------------------------------------|
E|------------------------------------------------------------------------|


e|-----------------0------------------------------------------------------|
B|--------0--1--3-----1----------1--0--------------0--1--3--0-------------|
G|--0--2-------------------------------2--0--0-----------------2--0-------|
D|----------------------------------------------0-------------------------|
A|------------------------------------------------------------------------|
E|------------------------------------------------------------------------|

hope you liked my tab!


Important: The song above is NOT stored on the Chordie server. The original song is hosted at www.guitaretab.com. Chordie works as a search engine and provides on-the-fly formatting. Chordie does not index songs against artists'/composers' will. To remove this song please click here.

This song is displayed as text-only. Transposing and tuning is only available for chordpro-songs.

Login - add to songbook

Rating click stars to rate

Layout
Accuracy

SHARE PAGE  




You need to log in to post comments