Guitar Tabs, Chords and Lyrics


California Dreams Theme  Misc. Television

-------------------------------------------------------------------------------



-------------------------------------------------------------------------------

   [D]               [G]   [A]   [D]                                                              
e|-------3-2-0----3--0--2----|
B|-----3-------3--0--2--3----|
G|---2------------0--2--2----|
D|-0--------------0--2--0----|
A|----------------2--0-------|
E|----------------3----------|

Intro: Riff 1 x1 D

[D]  Surf dudes with [G]attitudes
kinda [D]groovy
L[G]aid back moods
[D]  Sky above, [G]sand below
good vib[D]rations
feelin' m[G]ellow
[Em]   Don't give it [G]up.
[Em]   Don't wanna [G]stop.

D (Exaggerated strumming, to mimic drum beat)

Chorus:
[D]  Don't wake me [G]up.
[D]  Don't wake me [G]up if I'm dreamin'.
[D]  California [G]dreams.
Just let me [Em]lay here in the [G]sun.
Un[Em]til my dream is [G]done

Riff 1 x1

Important: The song above is NOT stored on the Chordie server. The original song is hosted at www.guitaretab.com. Chordie works as a search engine and provides on-the-fly formatting. Chordie does not index songs against artists/composers will. To remove this song please click here.

Text color:
Chord color:
Chord grids: 
Font size:    
Page size: 

A D Em G
variations - click chord images

Login - add to songbook

Transpose chords

Tuning

Rating click stars to rate

Layout
Accuracy

SHARE PAGE  




You need to log in to post comments