eToCache5 = ""; ?> Henry Viis Song by Misc. Traditional - guitar chords, guitar tabs and lyrics - chordie

Henry Viis Song

Misc. Traditional



 AEA
E|----------------|----2---0-------|----------------|
B|------------0---|-2------2---0---|-------------0--|
G|---------2------|-2--------------|--2-------------|
D|----------------|-2--------------|--2-------------|
A|---------0------|-0------0-------|--0--2--0-------|
E|----------------|----------------|----------0-----|

 DADAD
E|-----0---2------|----------------|-------------2--|
B|--2------3---3--|--2-------------|--3--2-----3----|
G|--2------2------|--2-------------|--2-----2--2----|
D|--2------0------|--2----------2--|--0--------0----|
A|--0-------------|--0-------2-----|-----0----------|
E|----------------|------0---------|----------------|

 AEA
E|--0---------0---|----------------|----------------|
B|--2-------------|-----0--2-----0-|----------------|
G|--2-------------|--2-----2--2--1-|--2-------------|
D|----------------|--------2-------|--2-------------|
A|-------0--------|--0-----0-----2-|--0--------0----|
E|-----0----------|----------------|-------0--------|

VERSES:
As the Holly Groweth Green
And never changeth hue
So I am ever hath been
Unto my lady true.
As the holly groweth green,
With Ivy all alone
When flowers cannot be seen
And greenwood leaves be gone.
Now unto my lady
Promise to her I make
From all other only
To her I me betake























A D E
variations - click chord images
Transpose chords:
Tuning:
Cool service:
View: Size:
A  A  A
Rating:
Layout:
  • Currently 2.9/5 Stars.
  • 1
  • 2
  • 3
  • 4
  • 5
 
Accuracy:
  • Currently 3/5 Stars.
  • 1
  • 2
  • 3
  • 4
  • 5
 
click stars to rate
Chordie recommends:
Learn to play this song & others via video guitar lessons at JamPlay.com
Songbook:
Login to add this song to your songbook
Support the artist
Preview/buy this song
MSN Music
Why this non-profit ad?

 
login to add comments/video/corrections