Guitar Tabs, Chords and Lyrics


Pop Goes The Weasel   Misc. Traditional










Title: Pop Goes The Weasel
Transcribed by: Izzy
Email: webesu6199@aol.com

I know this is 100% correct!

---------------------------------------------------------------8--------------|
-------------8-11-8---------------8-----------------8-11-8----------9-8-------|
-8-8--10-10---------8---8-8-10-10---10---8-8--10-10--------8-----10-----8-----|
----------------------8----------------8--------------------------------------|
------------------------------------------------------------------------------|
------------------------------------------------------------------------------|


-------------------------------------------------------------8----------------|
-------------8-11-8---------------8-----------------8-11-8--------9-8---------|
-8-8--10-10---------8---8-8-10-10---10---8-8--10-10--------8---10-----8-------|
----------------------8----------------8--------------------------------------|
------------------------------------------------------------------------------|
------------------------------------------------------------------------------|


-11-11-8-11-10-13-11----8-10-11-11-8-11-10-------------8-10-11----8-----------|
---------------------12--------------------11-9-8-9-11-----------------9-8----|
--------------------------------------------------------------------10-----8--|
------------------------------------------------------------------------------|
------------------------------------------------------------------------------|
------------------------------------------------------------------------------|


--------------------------------------------------------------8---------------|
-------------8-11-8----------------8-----------------8-11-8--------9-8--------|
-8-8--10-10---------8---8-8--10-10---10---8-8--10-10--------8---10-----8------|
----------------------8-----------------8-------------------------------------|
------------------------------------------------------------------------------|


Important: The song above is NOT stored on the Chordie server. The original song is hosted at www.guitaretab.com. Chordie works as a search engine and provides on-the-fly formatting. Chordie does not index songs against artists/composers will. To remove this song please click here.

This song is displayed as text-only. Transposing and tuning is only available for chordpro-songs.

Login - add to songbook

Rating click stars to rate

Layout
Accuracy

SHARE PAGE  




You need to log in to post comments