Down In The Valley

Misc. Traditional

 DA7
e|------------------2--|--------------------|-------2------------|--------------------|
B|o-------3------------|-------3---------3--|-----------------3--|-----------------2--|
G|-------------2-------|--2-----------------|--2---------2-------|-------0------------|
D|---0-----------------|------------0-------|--------------------|------------2-------|
A|o--------------------|--------------------|--------------------|--0-----------------|
E|---------------------|--------------------|--------------------|--------------------|


 A7D
E|--------------------|--------------------|--------------------|--2---(2)------------|
B|--------------------|-------2------------|-----------------2--|-----------------3--o|
G|-------0---------0--|-----------------0--|-------0------------|------------2--------|
D|--2-----------------|--2---------2-------|------------2-------|---------------------|
A|------------0-------|--------------------|--0-----------------|--------------------o|
E|--------------------|--------------------|--------------------|---------------------|


 DA7
 Down in the valley, the valley so low
 A7D
 Hang your head over, hear the wind blow
 DA7
 Hear the wind blow, dear, hear the wind blow
 A7D
 Hang your head over, hear the wind blow

Roses love sunshine, violets love dew
Angels in heaven, know I love you
Know I love you, dear, know I love you
Angels in heaven, know I love you

If you don't love me, love whom you please
Throw your arms 'round me, give my heart ease
Give my heart ease, dear, give my heart ease
Throw your arms 'round me, give my heart ease

Build me a castle 40 feet high
So I can see you as you ride by
As you ride by, dear, as you ride by
So I can see you as you ride by

Write me a letter, send it by mail
Send it in care of the Birmingham jail
Birmingham jail, dear, the Birmingham jail
Send it in care of the Birmingham jail

Writing this letter containing three lines
Answer my question "Will you be mine?"
Will you be mine, dear, will you be mine
Answer my question "Will you be mine?"



A7 D
variations - click chord images
Transpose chords:
Tuning:
Cool service:
View: Size:
A  A  A
Rating:
Layout:
  • Currently 3.1/5 Stars.
  • 1
  • 2
  • 3
  • 4
  • 5
 
Accuracy:
  • Currently 3.3/5 Stars.
  • 1
  • 2
  • 3
  • 4
  • 5
 
click stars to rate
Chordie recommends:
Check out JamPlay.com for online video guitar lessons
Songbook:
Login to add this song to your songbook
Support the artist
Preview/buy this song
MSN Music
Why this non-profit ad?

 
login to add comments/video/corrections