Guitar Tabs, Chords and Lyrics


Your Farther Aint No Beauty Queen   Misc. Unsigned Bands



drop c

|--------------------------------|
|--------------------------------|
|----------------7-5-----7-5-----|
|----5----8-7-5------7-8-----7-8-|       X 2
|--5---5-------------------------|
|-5------------------------------|

|----------------------------------------------------------------|
|----------------------------------------------------------------|
|------------3-2-|slide|--3-2-3------------3-2-|slide|-3-5-2-2-2-|
|------1---------|3-4-5|--------------1--------|3-4-5|-----------|
|---1----1--------------------------1---1------------------------|


Important: The song above is NOT stored on the Chordie server. The original song is hosted at www.guitaretab.com. Chordie works as a search engine and provides on-the-fly formatting. Chordie does not index songs against artists'/composers' will. To remove this song please click here.

This song is displayed as text-only. Transposing and tuning is only available for chordpro-songs.

Login - add to songbook

Rating click stars to rate

Layout
Accuracy

SHARE PAGE  




You need to log in to post comments