Guitar Tabs, Chords and Lyrics


Our Lives  Misc. Unsigned Bands

He[E]re we are t[G]onight [D]on the ripplin [E]surface
[E]Breethin in the [G]air [D]of the real [E]world
[E]We aint [G]inside [D]wathchin no [E]TV
[E]We're here on the [G]middle of a lake in the [D]middle of the [E]country
right here you start strumming the acual rythem
[E]This is who we [G]are [D]we hope you don't [E]mind
[E]But if ya [G]don't oh well [D]we aint gonna [E]die
[E]Were [G]here to stay [D]we'll always be in [E]sight
[E]Were [G]havin fun [D]  heck yea it's [E]midnight
Chourus
Cause were [D]mid[A]night [E]riders
[D]And we're [A]here to [E]stay
You aint g[E]onna run us out cause this right here is our favorite place
Verse 2
[E]How long we've [G]been out here we [D]can't really [E]tell
[E]But with our [G]poles and bait [D]were doin [E]well
I mean, [E]why would we go [G]back in and [D]waste our [E]time
I say [E]no way we're [G]stayin out [D]here till 3:4[E]9
[E]This is how we [G]have fun it's [D]always been what we [E]do
And I [E]don't think were gonna [G]change in to [D]somthin [E]new
Chorus
[D]Cau[A]se wer[E]e midnight riders
[D]And we're [A]here to [E]stay
You aint g[E]onna run us out cause this right here is our favorite place
after you play that you play the solo so here it is the chords are just the verse. you
it with a slider
E---------------------------------------------------10/12-------------------|
B-4/9-12-12/11/9-11/12/11/12-10v-11/12/11/12/11/12--10/12-------------------|
G---------------------------------------------------------------------------|
D---------------------------------------------------------------------------|
A---------------------------------------------------------------------------|
E---------------------------------------------------------------------------|
E-10/12/10-----7-7----5/7/5/7/5---0---3/5-2-3/2-----------------------------|
B-10/12/10-----7-7----5/7/5/7/5---0--------------3/5------------------------|
G---------------------------------------------------------------------------|
D---------------------------------------------------------------------------|
A---------------------------------------------------------------------------|
E---------------------------------------------------------------------------|


Chorus
[D]Cau[A]se wer[E]e midnight riders
[D]And we're [A]here to [E]stay
You aint g[E]onna run us out cause this right here is our favorite place

Chorus
[D]Cau[A]se wer[E]e midnight riders
And we're [D]stayi[A]n [E]here
[D]we aint [A]movin and [C]neither are you [G]youll be right [E]there

and then heres the little riff at the end
E---------------------------------------------------------------------------|
B---------------------------------------------------------------------------|
G---------------------------------------------------------------------------|
D--7-7-5--------------------------------------------------------------------|
A--------7-5----------------------------------------------------------------|
E------------7-5-3v-0-------------------------------------------------------|				


Important: The song above is NOT stored on the Chordie server. The original song is hosted at www.guitaretab.com. Chordie works as a search engine and provides on-the-fly formatting. Chordie does not index songs against artists'/composers' will. To remove this song please click here.

Text color:
Chord color:
Chord grids: 
Font size:    
Page size: 

A C D E G
variations - click chord images

Login - add to songbook

Transpose chords

Tuning

Rating click stars to rate

Layout
Accuracy

SHARE PAGE  




You need to log in to post comments