Guitar Tabs, Chords and Lyrics


Girl At The Bus Stop  Misc. Unsigned Bands

------------------------------------------------------------------------------



-------------------------------------------------------------------------------

[B]  [-]  [E]  [-]  [F#]   [-]  [E]                        
VERSE 1

[B]Girl at the[E] bus stop,[F#] talking[E] French

To a girlfriend, on the bench

I had my head, in a book

I lost my place, when I took a look


[B]Girl at t[E]he bus stop[F#], I wished[E] for once
That the bus, would never come

She sat downstairs, I sat behind

I couldn't get her, off my mind


[B]Girl at th[E]e bus stop[F#], I could n[E]ot believe
When she got off, same stop as me

I'd not forgive, myself if I

Let this chance, just pass by


[B]By, by,[E] thought[F#] I would [E]die
my, my, but-ter-fly


(SOLO)

trill 1/4bend trill 1/4b tr
e|--11-12--14-------11-12--14----------------------------------------------|
B|----^---------------^-----------11-12------------------------------------|
G|----------------------------------^---13-11~---9-9-9-8---8---------------|
D|-------------------------------------------------------11--9-------------|
A|-------------------------------------------------------------------------|
E|-------------------------------------------------------------------------|
e|-------------------------------------------------------------------------|
B|-------------------------------------------------------------------------|
G|--------------------------------------------8----------------------------|
D|--9-9-8h9-4~--8h9-8h9-2--8h9-4~-----4-4-2-1--9---------------------------|
A|-------------------------------------------------------------------------|
E|-------------------------------------------------------------------------|



VERSE 2

[B]Girl at t[E]he bus stop[F#], I asked [E]if she

Would maybe like to, come out with me

I noticed it had, began to snow

Her smile was sweet, when she said no


No, no, oh-no

No, no, oh-no


[B]Girl at the [E]bus stop,[F#] I thoug[E]ht of you
I wondered if you, wondered too

And perhaps you'll give it a miss

I think that it'd, be so last minute (?)


| / slide up
| \ slide down
| h hammer-on
| p pull-off
| ~ vibrato
| + harmonic
| x Mute note
===============================================================================

Important: The song above is NOT stored on the Chordie server. The original song is hosted at www.guitaretab.com. Chordie works as a search engine and provides on-the-fly formatting. Chordie does not index songs against artists'/composers' will. To remove this song please click here.

Text color:
Chord color:
Chord grids: 
Font size:    
Page size: 

B E F#
variations - click chord images

Login - add to songbook

Transpose chords

Tuning

Rating click stars to rate

Layout
Accuracy

SHARE PAGE  




You need to log in to post comments