Guitar Tabs, Chords and Lyrics


Godzilla With A Minigun   Misc. Unsigned Bands



I dont play bass but this is for the guy that wants to try out. This is  Godzilla
 With A Minigun. And its the easy song for bass that we have. :)

Tunning - A Sharp


Intro
(0:00-0:14)
|-----------------------------------------|
|-----------------------------------------|
|-----------------------------------------|x2
|--0~--0-----0~--0-----0~--0-----0~--0----|


(0:14-0:26)
|---------------------------------------------|
|---------------------------------------------|
|-------5h8p5-----1h4p1-----4h7p4-----5h8p5---|x2
|--0~--0-----0~--0-----0~--0-----0~--0--------|


(0:27-0:59)
|----------------------------------------------------------|
|----------------------------------------------------------|
|--------------------8p5-4p7-8p5-4p7-----8p5-4p7-55884477--|
|--0~-(slide-down)-00---0---0---0---4*-00---0---0----------|


Theenn right after that^^
|----------------------------------------------|
|----------------------------------------------|
|----8p5-4p7-8p5-4p7-4*--8p5-4p7---------------|x3
|--00---0---0---0------00---0---0-4-3-1~-------|


Breakdown thing
(0:59-1:20)
|---------------------------|
|---------3--2--5--7--------|
|----------5--3--7--8-------|x8
|--000-000--0--0--0---------|

Slow part
(1:21-2:00)
|-------------------------------------------------|
|-------------------------------------------------|
|---5~--8~--4~--7~-(x3)-5~--10~--8~--7h8p7h8--5~--|x2
|-------------------------------------------------|

Breakdown
(2:01-2:34)
|---------------------------------------------|
|---------------------------------------------|
|---------------------------------------------|x3
|--000-0000000-0-0-00--000-0000000-0-0-01~----|

Theennn
|---------------------------------------------|
|---------------------------------------------|
|---------------------------------------------|x1
|--888-8888888-8-8-88--888-8888888-8-8-777~---|

Then right after that
|---------------------------------------------|
|---------------------------------------------|
|---------------------------------------------|x2
|--000-0000000-0-0-00--000-0000000-0-0-01~----|

(2:35-2:42)
|--------|
|--------|
|--------|x1
|--0~~---|

Fill
(2:42-2:43)
|---------------------------------|
|---------------------------------|
|--1212121010108h10h127h8h10------|x1
|---------------------------------|

Pick really fast for each note
(2:44-3:01)
|----------------------------------------------|
|----------------------------------------------|
|--5---7---8---10---1212121010108h10h127h8h10--|x2
|----------------------------------------------|

(3:02-3:25)
|----------------------------------------------------------|
|----------------------------------------------------------|
|----------------------------------------------------------|
|--000-000-000-0-0-0--000-000-222-222-222-2-2-2--222-222---|


|------------------------------------------------------------------------|
|------------------------------------------------------------------------|
|--------------------------------------------1212121010108h10h127h8h10---|x2
|--333-333-333-3-3-3--333-333-555-555-555-5-5----------------------------|


Thenn
(3:26-3:35)
|--------|
|--------|
|--------|x1
|--0~~---|


|----------|
|----------|
|----------|x1
|--4-3-1~~-|

Breakdown
(3:36-
|------------------------------|
|------------------------------|
|------------------------------|x6
|--0--4--3--1-0-3-4-3-0-1-3-1--|


Then thats it. Hit us up if you have questions...
www.myspace.com/viricidal 

Important: The song above is NOT stored on the Chordie server. The original song is hosted at www.guitaretab.com. Chordie works as a search engine and provides on-the-fly formatting. Chordie does not index songs against artists'/composers' will. To remove this song please click here.

This song is displayed as text-only. Transposing and tuning is only available for chordpro-songs.

Login - add to songbook

Rating click stars to rate

Layout
Accuracy

SHARE PAGE  




You need to log in to post comments