Guitar Tabs, Chords and Lyrics


Theme Song   Misc. Unsigned Bands



OK so i don't know the true name of this song, but it appears in a iron maiden video  
and i thought it would be cool to tab it. I play it in C# standard but you can play it 
whatever tuning and it still sounds cool.

e|12-11-10h11p10-9-------------11-10-9h10p9-8----------------9-----------9------------|
B|------------------13-12-11-12---------------12-11-10-11-11--11-11-10-11--11-11-10-11|
G|------------------------------------------------------------------------------------|
D|------------------------------------------------------------------------------------|
A|------------------------------------------------------------------------------------|
E|------------------------------------------------------------------------------------|
                                                          

e|-----------------------------------12-|
B|-------------------------------9h10---|
G|------------------------9h10h12-------|
D|-----------------9h10h12--------------|
A|----------9h10h12---------------------|


Important: The song above is NOT stored on the Chordie server. The original song is hosted at www.guitaretab.com. Chordie works as a search engine and provides on-the-fly formatting. Chordie does not index songs against artists'/composers' will. To remove this song please click here.

This song is displayed as text-only. Transposing and tuning is only available for chordpro-songs.

Login - add to songbook

Rating click stars to rate

Layout
Accuracy

SHARE PAGE  




You need to log in to post comments