Chordie logo


Jingle Bells   Misc. Unsigned Bands



I'm not certain but sounds good to me. It's just jingle bells on C sharp.

E----------------------------------------------------------------------|
B----------------------------------------------------------------------|
G----------------------------------------------------------------------|
D----------------------------------------------------------------------|
A-4-4-4---4-4-4---4-7-----4---5-5-5-5-5-4-4-4-4-----4---7--------------|
E---------------------5-7-----------------------7-7---7----------------|

E----------------------------------------------------------------------|
B----------------------------------------------------------------------|
G----------------------------------------------------------------------|
D----------------------------------------------------------------------|
A-4-4-4---4-4-4---4-7-----4---5-5-5-5-5-4-4-4-7-7-4--------------------|
E---------------------5-7---------------------------7-5----------------|

Verse:
E----------------------------------------------------------------------|
B----------------------------------------------------------------------|
G----------------------------------------------------------------------|
D----------------------------------------------------------------------|
A-----4-------------4---------5-4-2-0-7-7-5---4------------------------|
E-4-4---7-5-4-4-4-4---7-5-2-2---------------7--------------------------|

E----------------------------------------------------------------------|
B----------------------------------------------------------------------|
G----------------------------------------------------------------------|
D----------------------------------------------------------------------|
A-----4-------------4-----------5-4-2-7-7-7-7-9-7-5-------7------------|


Important: The song above is NOT stored on the Chordie server. The original song is hosted at www.guitaretab.com. Chordie works as a search engine and provides on-the-fly formatting. Chordie does not index songs against artists/composers will. To remove this song please click here.

This song is displayed as text-only. Transposing and tuning is only available for chordpro-songs.

Login - add to songbook

Rating click stars to rate

Layout
Accuracy

SHARE PAGE  




You need to log in to post comments