Ultima Cancion

Misc. Unsigned Bands

 AmCDD7
e |--------x-------------x-----------2--------------------3----------------|
A |-----1--------------1---------------3------------------3----------------|
B |-------2--------------2-----------2--------------------2----------------|
C |-------2----------------3-----------x------------------x----------------|
D |-------x--------------x-------------x------------------x----------------|
E |-------x--------------x-------------x-------------------x---------------|


INTRO

Am (x2)

D (x1)

e |-------2------|
A |----3----3----|
B |-2------------|
C |--------------|
D |--------------|
E |--------------|


Am (x2)

C (x2)

D (x1)

e |-------2------|
A |----3----3----|
B |-2------------|
C |--------------|
D |--------------|
E |--------------|


Am C D D7 (x2)

VERSE 1

 AmCDD7
 Ya no se que estoy haciendo  

 AmCDD7
 Si el amor nos va comiendo   

 AmCDD7
 Nos destruye por adentro     

 AmCDD7
 Y nos sigue consumiendo      
 AmCDD7
 Nos acaba                    

 AmCDD7
 Nos maltrata                 

 AmCDD7
 Pero siempre regresaba       

CHORD

 AmCDD7
 Como si fuera la Última vez  

 AmCDD7
 Como si fuera la Última ocasión

 AmAmAmAmC
 Como                   

 CCCCD
 Como                      

D D D7 (x4)
Última Canción

Am C D D7 (x2)

VERSE 2

 AmCDD7
 Destruyendo la morada        

 AmCDD7
 Con solo tu mirada           

 AmCDD7
 Consumiendo mí desgracia     

 AmCDD7
 Con esos ojos de gata        

 AmCDD7
 Tu mirada                    

 AmCDD7
 Tu sonrisa                   

 AmCDD7
 Le dan vida a mi prisa       

 AmCDD7
 Esos días que no pasaron     

Am C D D7 D7 (x4)
Y esas tardes que no llegaron

Am C D D7 (x4)

VERSE 1

 AmCDD7
 Ya no se que estoy haciendo  

 AmCDD7
 Si el amor nos va comiendo   

 AmCDD7
 Nos destruye por adentro     

 AmCDD7
 Y nos sigue consumiendo      

OUTRO

Am C D D7 (x3)

Am C D D7 (x1) EFFECT

Am (x2)

D (x1)

e |-------2----------------|
A |----3----3--------------|
B |-2----------------------|          SLOW
C |------------------------|
D |------------------------|
E |------------------------|


Am (x1)

Am (x2) FAST

Cualquier comenario: sistemantn@hotmail.com


Am C D D7
variations - click chord images
Transpose chords:
Tuning:
Cool service:
View: Size:
A  A  A
Rating:
Layout:
  • Currently 2.6/5 Stars.
  • 1
  • 2
  • 3
  • 4
  • 5
 
Accuracy:
  • Currently 3/5 Stars.
  • 1
  • 2
  • 3
  • 4
  • 5
 
click stars to rate
Chordie recommends:
Learn how to play guitar at JamPlay.com
Songbook:
Login to add this song to your songbook
Support the artist
Preview/buy this song
MSN Music
Why this non-profit ad?

 
login to add comments/video/corrections